Correré

Hillsong United

Genero:

Tablatura

CORRERÉ
Traducción autorizada al español
(Run)
Letra y Música por Joel Houston
Traducción por Antonio Romero y Tania Braun

INTR.
D#m B F G#m7 D#m B F# G#m (x2)

E---------------------------------------------|
B--11-11-11-11-9-11-12-11-11-11-7-7-9-9-6-6---|
G---------------------------------------------|
D---------------------------------------------|
A---------------------------------------------|
E---------------------------------------------|
x2
E-------------------------------9-9-9-9-------|
B--11-11-11-11-9-11-12-11-11-11---------------|
G---------------------------------------------|
D---------------------------------------------|
A---------------------------------------------|
E---------------------------------------------|

VERSO 1
D# B F G#m7(No Bass)
Eres Dios sin principio
D#m B F# G#m
Creador infinito
B
Tú nos viste aquí
D#m C# B
Cuando llamaste la tierra Y el mundo a existencia

VERSO 2
D# B F G#m7 (Add Bass)
Eres Dios de victoria
D#m B F# G#m
La historia es tu historia
B
Tú quien fuiste y es
D#m C# B
Y quien por siempre será Viviré por tu gloria

CORO 1
El coro va acompañado con esto en la primera guitarra
Lo repite por cada nota

E---------4-4-2-2-2-2------------|
B--------------------------------|
G-----3-3------------------------|

F# C# D#m
Y correré Arde fuego en mi corazón
B F#
Nada puede apagar tu amor
G#m7 D#m B
Mi Dios la Gloria te daré ¡¡¡cristo!!!!

INSTRUMENTAL
D#m B F G#m7 D#m B F# G#m

E---------------------------------------------|
B--11-11-11-11-9-11-12-11-11-11-7-7-9-9-6-6---|
G---------------------------------------------|
D---------------------------------------------|
A---------------------------------------------|
E---------------------------------------------|
x2
E-------------------------------9-9-9-9-------|
B--11-11-11-11-9-11-12-11-11-11---------------|
G---------------------------------------------|
D---------------------------------------------|
A---------------------------------------------|
E---------------------------------------------|
VERSO 3
D# B F# G#m7
Eres Dios, somos libres
D#m B F# G#m
En nosotros tú vives
B
Tú nos viste aquí
D#m C# B
Antes de resucitar Y entregarnos tu promesa

CORO 1
El coro va acompañad con esto en la primera guitarra

E---------4-4-2-2-2-2------------|
B--------------------------------|
G-----3-3------------------------|

F# C# D#m
Y correré Arde fuego en mi corazón
B F#
Nada puede apagar tu amor
G#m7 D#m B
Mi Dios la Gloria te daré

CORO 2
El coro va acompañad con esto en la primera guitarra

E---------4-4-2-2-2-2------------|
B--------------------------------|
G-----3-3------------------------|

F# C# D#m
Y correré Con mi vida te alabaré
B F#
Y tu nombre famoso haré
C# F#/A# B
Mi Dios la gloria te daré Jesús

Instrumental:
D#m B F# G#m D#m B F# G#m

E---------------------------------------------|
B--11-11-11-11-9-11-12-11-11-11-7-7-9-9-6-6---|
G---------------------------------------------|
D---------------------------------------------|
A---------------------------------------------|
E---------------------------------------------|

E-------------------------------9-9-9-9-------|
B--11-11-11-11-9-11-12-11-11-11---------------|
G---------------------------------------------|
D---------------------------------------------|
A---------------------------------------------|
E---------------------------------------------|
X2

B X4 D#m B D#m B X2

CORO 1
El coro va acompañad con esto en la primera guitarra

E---------4-4-2-2-2-2------------|
B--------------------------------|
G-----3-3------------------------|

F# C# D#m
Y correré Arde fuego en mi corazón
B F#
Nada puede apagar tu amor
G#m7 D#m B
Mi Dios la Gloria te daré

CORO 2
El coro va acompañad con esto en la primera guitarra

E---------4-4-2-2-2-2------------|
B--------------------------------|
G-----3-3------------------------|

F# C# D#m
Y correré Con mi vida te alabaré
B F#
Y tu nombre famoso haré
C# F#/A# B
Mi Dios la gloria te daré Jesús

fin
D# B F G#m7 D#m B F# G#m

E---------------------------------------------|
B--11-11-11-11-9-11-12-11-11-11-7-7-9-9-6-6---|
G---------------------------------------------|
D---------------------------------------------|
A---------------------------------------------|
E---------------------------------------------|
X2
E-------------------------------9-9-9-9-------|
B--11-11-11-11-9-11-12-11-11-11---------------|
G---------------------------------------------|
D---------------------------------------------|
A---------------------------------------------|
E---------------------------------------------|