Yo No Lo Haré

Hermética

Album: Hermética
Genero: Rock

Tablatura (Ver letra)

INTRO:
GUITARRA sola y sin distorcin:

e|---------------------------------|-----------------------------------|
b|---------------------------------|---------------------------------0-|
G|-------0-------4-----2---------0-|-------0-------4-------0-----------|X2
D|-----4-------5-----2---------0---|-----4-------5-------7---------7---|
A|---2-------3-----0---------0-----|---2-------3----/7-5---------7-----|
E|-0-------0-------------3-2-------|-0-------0---------------6-5-------|


sigue asi ... Entra el BAJO- y la bata
GUITARRA:
G
e|---------------------------------|-----------------------------------| |-------------------|
b|---------------------------------|---------------------------------0-| |---------3---------|
G|-------0-------4-----2---------0-|-------0-------4-------0-----------|X2 |-------3---3-------|
D|-----4-------5-----2---------0---|-----4-------5-------7---------7---| |-----5-------5-----|
A|---2-------3-----0---------0-----|---2-------3----/7-5---------7-----| |---5----------5----|
E|-0-------0-------------3-2-------|-0-------0---------------6-5-------| |-3-------------(3)-|

BAJO:
G|-------------------------------------------------|--|---------------------|
D|-------------------------------------------------|X2|---------------------|
A|--------(5)---2-0-----------------2--------------|--|---------------------|
E|-(0)--------------3-5--(0)--3-2-3---5-3-(2)--3-2-|--|--3----3----3----3---|

VERSO 1: (sin dist.)
GUITARRA: Em C Em C
e|-----|----------------------0-------------------------------0----------|
b|-----|--------0---------------1-------------0-----------------1--------|
G|-----|------0---0---------0-----0---------0---0-----------0----0-------|
D|-----|----2-------2-----2---------2-----2-------2-------2--------2-----|
A|-----|--2-----------2-3---------------2-----------2---3----------------|
E|-3-2-|0-----------------------------0----------------------------------|
Em C D
e|------------------------0------------------------------------------|
b|---------0---------------1----------------5--------------(5)-------|
G|-------0---0---------0----0-----------7-----7---------7------------|
D|-----2-------2-----2--------2-------7---7-----7-----7---7----------|
A|---2-----------2-3---------------5--------------5-5----------------|
E|-0-----------------------------------------------------------------|

Em
Míralos,
C
vienen atrás.
Em C
Y nuestro amor ausente está
Em C D D
entorpeciendo su andar..

BAJO: ______X2______ E C
G|-----||----------------|--------------------------|
D|-----||----------------|--------------------------|
A|-----||------(3)-------|-----(3)--(5)---5---------|
E|-3-2-||-(0)-------2-3--|-(0)-----------------12/--|



2do VERSO:
GUITARRA : (con distorcion)
E5 C5 E5 C E5 C5 D5 (E D5)
e|---|-----|----|---|----|----|-----------|
B|---|-----|----|---|----|----|-----------|
G|---|-(5)-|----|(5)|----|(5)-|-(7)-/9-(7)|
D|(2)|-(5)-|(2)-|(5)|(2)-|(5)-|-(7)-/9-(7)|
A|(2)|-(3)-|(2)-|(3)|(2)-|(3)-|-(5)-/7-(5)|
E|(0)|-----|(0)-|---|(0)-|----|-----------|

BAJO:
G|---|-----|----|---|----|----|-----------7-7-7-7-7-7-7-|
D|---|-----|----|---|----|----|-------------------------|
A|---|-(3)-|----|(3)|----|(3)-|-(5)--7--5---------------|
E|(0)|-----|(0)-|---|(0)-|----|-------------------------|

E5
Acércate,
C5
acompáñame,
E5 C5
busquemos sin mirar atrás,
E5 C5 D5 (E D5)
es la última oportunidad

aca cambia

E5 C5 Riff 1 E5 C riff 2 E5 C5 D5 (E D5)
e|---|-----|------------|----|---|--------------|----|----|-----------|
B|---|-----|------------|----|---|--------------|----|----|-----------|
G|---|-(5)-|------------|----|(5)|--------------|----|(5)-|-(7)-/9-(7)|
D|(2)|-(5)-|--5-4-------|(2)-|(5)|---5-4--------|(2)-|(5)-|-(7)-/9-(7)|
A|(2)|-(3)-|--3-2-------|(2)-|(3)|---3-2--------|(2)-|(3)-|-(5)-/7-(5)|
E|(0)|-----|-------3-2--|(0)-|---|-------3------|(0)-|----|-----------|
......... ......
BAJO:
G|----|-------|------------|----|-------|--------------|-----|-------|------------7-7-7-7-7-7-7-|
D|----|-------|------------|----|-------|--------------|-----|-------|--------------------------|
A|----|-2-(3)-|--3-2-------|----|--2-(3)|---3-2--------|-----|--2-(3)|-(5)--7-(5)---------------|
E|0(0)|3------|-------3-2--|0(0)|3------|-------3------|0(0)-|3------|--------------------------|


E5
Tenemos
C5 riff 1
este camino
E5 C5 riff2
sin más para elegir
E5 C5 D (E_D5)
que oxidarse o resistir.


ESTRIBILLO 1:
GUITARRA:
G5 F5 E5 Bb A G G5 F5 Riff 3 C5 D5 E D
e|-----|----|------------------------------| |-----|----|------------|----|------------|
b|-----|----|------------------------------| |-----|----|------------|----|------------|
G|-----|----|---------------------10-9-(7)-|X2 |-----|----|------------|(5)-|-(7)-/9-(7)-|
D|-(5)-|(3)-|-9-------9------------8-7-(5)-| |-(5)-|(3)-|--------(7)-|(5)-|-(7)-/9-(7)-|
A|-(5)-|(3)-|-7-777-7-7---7-777-7----------| |-(5)-|(3)-|-3---5--(7)-|(3)-|-(5)-/7-(5)-|
E|-(3)-|(1)-|------------------------------| |-(3)-|(1)-|-1---3--(5)-|----|------------|
..... ....... PM ..

BAJO:
G F E Bb A G G F Riff 3 C D E D
G|-----|----|------------------------------| |-----|----|------------|----|-----------777777-|
D|-----|----|------------------------------|X2 |-----|----|------------|----|------------------|
A|-----|----|-7-777-7-7---7-777-7----------| |-----|----|------------|(3)-|-(5)-/7-(5)-------|
E|-(3)-|(1)-|---------------------6--5--3--| |-(3)-|(1)-|-1---3--(5)-|----|------------------|


G5 F5 E5 (Bb A G)
Permitir que el miedo los detenga
G5 F5 E5 (Bb A G)
es dispararles por detrás.
G5 F5 (Riff 3) C5 D (E_D5)
Alimentando aun la asfixiante oscuridad.


VERSO 3:
E5 C5 Riff 1 E5 C riff 2 E5 C5 D5 (E D5)
e|---|-----|------------|----|---|--------------|----|----|-----------|
B|---|-----|------------|----|---|--------------|----|----|-----------|
G|---|-(5)-|------------|----|(5)|--------------|----|(5)-|-(7)-/9-(7)|
D|(2)|-(5)-|--5-4-------|(2)-|(5)|---5-4--------|(2)-|(5)-|-(7)-/9-(7)|
A|(2)|-(3)-|--3-2-------|(2)-|(3)|---3-2--------|(2)-|(3)-|-(5)-/7-(5)|
E|(0)|-----|-------3-2--|(0)-|---|-------3------|(0)-|----|-----------|
......... ......
BbAJO:
G|----|-------|------------|----|-------|--------------|-----|-------|------------7-7-7-7-7-7-7-|
D|----|-------|------------|----|-------|--------------|-----|-------|--------------------------|
A|----|-2-(3)-|--3-2-------|----|--2-(3)|---3-2--------|-----|--2-(3)|-(5)--7-(5)---------------|
E|0(0)|3------|-------3-2--|0(0)|3------|-------3------|0(0)-|3------|--------------------------|


E5 C5 riff 1
Yo no lo haré, no los entregaré
E5 C5 riff2
a la impaciente ansiedad.
E5 C5 D (E_D5)
Del vicio o la soledad.


ESTRIBILLO 2: (igual que el 1)

Impedir que para el futuro mueran
es encender una vez mas
el fuego vivo que este entorno limpiará.


Acercate.

SOLO DE GUITARRA:
GUITARRA2: ___________X2__________
E5 E5 C5 E5 E5 D5 | C B5 D5 |
e|-----------------------------|----------------------------|--|-------------------------|
B|-----------------------------|----------------------------|--|-------------------------|
G|-----------(9)---------------|------------(9)-------------|X2|--5--(5)-----------------|
D|-----------(9)--9------------|------------(9)-9--7--7-(7)-|--|--5--(5)--5--4-4--7-7-7--|
A|-----------(7)--7-10-10-(10)-|------------(7)-7--5--5-(5)-|--|--3--(3)--3--2-2--5-5-5--|
E|-0--0-0-0-0--------8--8-(8-)-|-0--0-0-0-0-----------------|--|-------------------------|
pm,,,,,,,, ..........
D5 C5 D5
e|--------------------------|
B|--------------------------|
G|--7--(7)--5-5---7---(7)---| dejar sonar
D|--7--(7)--5-5---7---(7)---|
A|--5--(5)--3-3---5---(5)---|
E|--------------------------|


BAJO: _______________X2____________
G|-----------------------------|----------------------------|--|-------------------------------|
D|-----------------------------|----------------------------|X2|-------------------------------|
A|-----------(7)--7------------|------------(7)-7--5--5-(5)-|--|--3-3-3-3-3-3-3--3-3-3-3-3-33-0|
E|-0--0-0-0-0--------8--8-(8-)-|-0--0-0-0-0-----------------|--|-------------------------------|
____________x2_______________
G|-------------------------------|
D|-------------------------------|
A|5-5-5-5-5-5-5-5-5-5-5-5-5-5-5-3|
E|-------------------------------|

GUITARRA (solo)
e|------------------------------------------------------------------------------------------|
B|------------------------------------------------------------------------------------------|
G|------------------------------------------------------------------------------------------|
D|------------------------------------------------------------------------------------------|
A|------------------------------------------------------------------------------------------|
E|------------------------------------------------------------------------------------------|

e|------------------------------------------------------------------------------------------|
B|------------------------------------------------------------------------------------------|
G|------------------------------------------------------------------------------------------|
D|------------------------------------------------------------------------------------------|
A|------------------------------------------------------------------------------------------|
E|------------------------------------------------------------------------------------------|

REPITE VERSO 3.

E5 C5 riff 1
Yo no lo haré, no los entregaré
E5 C5 riff2
a la impaciente ansiedad.
E5 C5 D (E_D5)
Del vicio o la soledad.



REPITE ESTRIBILLO 2: (igual que el 1)

Impedir que para el futuro mueran
es encender una vez mas
el fuego vivo que este entorno limpiará.


FINAL:
E5
Acércate,
acompañame,
busquemos sin mirar atrás...



fin.