Vientos De Poder

Hermética

Album: Ácido Argentino
Genero: Rock

Tablatura (Ver letra)

Le agregue la parte que faltaba de la intro y le termine el solo, ademas
lo ordene todo para que se entienda mejor, espero que sea de su agrado

Riff 1:
1|----------|----------|--------|------------| |---------|
2|----------|----------|--------|------------| |---------|
3|----------|----------|--------|------------| |---------|
4|----------|----------|-7-9-10-|------3---7-| |---------|
5|-7-7--7-7-|-2-2--2-2-|-5-7--8-|-5-3--1---5-| X2 |-2-2-2-2-|
6|-5-5--5-5-|-0-0--0-0-|--------|-3-1--------|
|-0-0-0-0-|

Riff 2:
1|-------------------------------------------------|
2|-------------------------------------------------|
3|-------------------------------------------------|
4|-------------------------------------------------| (sobre esta base
5|-9--9--9---------------9--9---------9--9---------| habla al revez)
6|-7--7--7--9-9-9-9-9-9--7--7--9-9-9--7--7-9-9-9-9-|


Riff 3:
1|----------------------------------|
2|----------------------------------|
3|----------------------------------|
4|----------------------------------|
5|-------------------5--------------|
6|-0-0-0-8-7-5-8-7-5----------------|


Riff 4:
1|------------------------------------------|
2|------------------------------------------|
3|------------------------------------------|
4|------------------------------10/9--------|
5|-9--9--9--9--9--9-9-9--9-9-9---8/7--------|
6|------------------------------------------|


Riff 5:
1|---------------------------------|
2|---------------------------------|
3|---------------------------------|
4|---------------------------12/10-|
5|-8--8--8--8--8-8-8--8-8-8--10/8--|
6|---------------------------------|


Riff 6:
1|------------------|
2|------------------|
3|------------------|
4|------------------|
5|-------5-3-0-3----|
6|-0-0-0------------|


Riff 7:
1|-------------------------------------|
2|-------------------------------------|
3|-------------------------------------|
4|-------10/9------7/9------10/9-----9-|
5|-------8-/7------5/7------8-/7-----9-|
6|-0-0-0------0-0-0----0-0-0-----0-0---|


Riff 8:
1|-----------------------|
2|-----------------------|
3|-----------------------|
4|-----------------------|
5|-10-9-7----8-7-5--7--2-|
6|--8-7-5----6-5-3--5--0-|


Intro: Riff 1 + Riff 2

E* F* E*RE E* Riff 3
Vientos de poder
E* F* E* D E* Riff 3
en el crepúsculo final guian el viaje.
E* F* E* D E* Riff 3
Que mas de uno se ha entregado al polvo inca,
E* F* E* D E* Riff 3
muestran los informes del control vigilante.

E* Riff 4
La cúpula se agita por mostrar decencia
E* Riff 4
y muchos justicieros se abren de piernas.
E* Riff 4
La estructura emergente se tambalea
E* Riff 4
en burbujeante orgía de magias negras.

G*/FA* Riff5
El pobre envejecido sige la procesión
G*/FA* Riff5
con silencioso instinto de privación.
G*/FA* Riff5
Yo no vendo canciones de amor vendido,
G*/FA* Riff5
en la que estoy me planto y no me persigo.

E* Riff 4
Si me atrapan las redes de la osamenta,
E* Riff 4
por pobre de seguro que me harán la boleta.
E* Riff 4
Pero no estoy vencido aun tengo fuerzas
E* Riff 4
para dar mi mensaje de resistencia.

E C G A Riff 6
Se-gui-ré
E C G A C
junto al metal con mi mensaje
E C G A Riff 6
va-ci-laa-ré
E C G A C
si tu no estas en este viaje.

Riff 7 x3 1/2 + Riff 8
En este viaje (a mitad del segundo riif 7)

Riff 7 x4

Solo:

1|-----------------------------------------------------|
2|-----------------------------------------------------|
3|-----------------------------------------------------|
4|---------7-9----7h9-7--------------------------------|
5|-7--9-10--------------9-10---9-10--9/10/9/10/9/10----|
6|-----------------------------------------------------|


1|------------------------------------------------------|
2|------------------------------------------------------|
3|----------------------------7-5-4---5-4-----4---------|
4|----------------------------------7-----7-5---7-5-4---|
5|--9-10-7-9-5-7-4-5-7-5-4------------------------------|
6|-------------------------5----------------------------|


1|------------------------------------------------------|
2|----------------------7-8-7h8p7---7-8--10-8-7h8-7-5-7-|
3|--------------------9-----------9---------------------|
4|-7-5-4----------7-9-----------------------------------|
5|--------7--9-10---------------------------------------|
6|------------------------------------------------------|


1|-7-5-----5-----------------10-8-7----8-7-----7--------|
2|-----8-7---8-7-5-8-7-5-3-5--------10-----10-8--10-8-7-|
3|------------------------------------------------------|
4|------------------------------------------------------|
5|------------------------------------------------------|
6|------------------------------------------------------|

^ ^
1|-----------se repite x5-------------------------12-14-|
2|-10-8-7----7h8h7---7-8--12-10-8-10-8-7-7h8-7-5-7------|
3|--------9---------9-----------------------------------|
4|------------------------------------------------------|
5|------------------------------------------------------|
6|------------------------------------------------------|


1|--15-12----12-15-12----12-15-12----12-15-12----12-|
2|--------15----------15----------15----------15----|
3|--------------------------------------------------|
4|--------------------------------------------------|
5|--------------------------------------------------|
6|--------------------------------------------------|


1|--15-12----12------------------------------------------------------|
2|--------15----15-12----12-15-12----12-15-12------------------------|
3|--------------------14----------14----------14-12--14~-----11--12--|
4|-------------------------------------------------------14----------|
5|-------------------------------------------------------------------|
6|-------------------------------------------------------------------|


1|----------------------|----------------------------------|
2|----------------------|----------------------------------|
3|----11----------------|--14--12--11------12--11----------|
4|----------14~---------|--------------14----------14--12--|
5|----------------------|----------------------------------|
6|----------------------|----------------------------------|


1|----------------------------|----------------------------|
2|----------------------------|----------------------------|
3|--12--11--14--12------------|----------------------------|
4|------------------12~-------|------------7--9------7--9--|
5|----------------------------|--7--9--10--------10--------|
6|----------------------------|----------------------------|


1|-------------------------|
2|-------------------------|
3|----------------9~-------|
4|--10--7--9--10-----------|
5|-------------------------|
6|-------------------------|


E C G A Riff 6
Se-gui-ré
E C G A C
junto al metal con mi mensaje
E C G A Riff 6
va-ci-laa-ré
E C G A C
si tu no estas en este viaje.

Riff 7 x3 1/2 + Riff 8

Nota:
Todos los acordes van en 5tas
* = acorde agudo

**********************************************************************
Bueno eso es todo, este es mi primer tab, espero que este bien jeje.
Por cualquier duda, consulta, queja, puteada, etc:
matt-punkrock @hotmail.com
Pura vida y paz al mundo