Vida Impersonal

Hermética

Genero: Rock

Tablatura

Intro:
G|--------------------------------|
D|---------------------4-----7----|
A|-----------4--5--7------7-------|
E|---5--7-------------------------|

G|------------------------------------|
D|---------------------4--------------|
A|-----------4--5--7------7----5--4---|
E|---5--7-----------------------------|

G|------------------------------------------|
D|---------------------4-------7--5--4--0---|
A|-----------4--5--7------7-----------------|
E|---5--7-----------------------------------|

Riff 1:
G|---------------------------------------|
D|---------------------------------------|
A|---------------------------------------|
E|---3-3-3-3-3-3-3-3---5-5-5-5-5-5-5-5---|
Riff 2:
G|---------------------------------|X3--------------------------------------|
D|---------------------------------|----------------------------------------|
A|---5-5-5-5-5-5-5-5--2-0-2-0-2-0--|---------------------5------------------|
E|---------------------------------|----3-3-3-3-3-3-3-3-----5-5-5-5-5-5-5-5-|
Riff 3:
G|----------------------------------------|
D|----------------------------------------|
A|--------------------5-------------------|
E|---3-3-3-3-3-3-3-3-----5-5-5-5-5-5-5-5--|
Riff 4:
G|------------------------------------------------------------|
D|---------------------------------------------------------7--|
A|--7--7-7--9-10-10-9-7-5--9-10-12-7--7--7-7--9-10-10-9-7-----|
E|------------------------------------------------------------|
Canto:Riff 1
D B
Ya no maltrates a tu animal,
D
pues no la debes vencer,
B
sino amar y salvar.
D B
te lo digo antes de que estes

Riff 1
Ahogado por la pared
D A B
que sostienen las últimas sombras
D A B
que la congelan de revelación
D A B
sostenida por los muertos
Riff 1
que viven en lo externo


Riff 2: X2
que como nubes vienen y van
alimentando al ser,
testigos de la eternidad.
incapaces de comprender,
que es hora de amanecer.
la tierra se iluminara,
cuando liguen a su rollo la vida impersonal.
y no existirá otra ley
que la íntima consiencia

B B E E
No, no esperes de mi nada especial.
B B E E
no busco influenciarte ni combencerte.
B B E E
fuera de ti no hay ningun mediador.
Riff 3:
en el mundo no hallaras más que ilución.
Riff 4:
Pues en el mundo no hallaras más que ilución.
Te lo digo hoy.

Solo sobre: Riff 2


B B E E
No, no esperes de mi nada especial.
B B E E
Lo que tu buscas dentro tuyo esta.
B B E E
fuera de ti no hay ningun mediador.
Riff 3
en el mundo no ayaras más que ilución.

Riff 2
la tierra se iluminara,
cuando los hombres acepten la vida impersonal.
y no existirá otra ley
que la íntima consiencia.
Riff 2
Destronando al cerdo sin paz.
Generación de serpiente ya reirna no podra.
No habrá velos que te impidan ver.
La inmortalidad de tu ser

D A B
Fuera de ti
D A B
no hay mediador
D A B
En el mundo

A A D B
No hallaras más que ilusión