Victimas Del Vaciamiento

Hermética

Genero: Rock

Tablatura

E5:x799xx F5:x81010xx D5:101212xxx
C5:81010xxx B5:799xxx A5:577xxx
B5:x244xx D5:x577xx(en el estribillo)

INTRO:X4
|-----------------------------------
|-----------------------------------
|-----------------------------------
|-------9-7--------10-9-------9-7---
|-7-7-7-7-5-7-7-7--8--7-7-7-7-7-5---
|-0-0-0-----0-0-0-------0-0-0-------

----------------------|
----------------------|
----------------------|
------12\11-----11\10-|
------10\9------9 \8--|
--0-0-------0-0-------|

Riff1:parte1
E|-----------------------------|X1
B|-----------------------------|
G|-----------------------------|
D|-----------------------------|
A|-------7---------------------|
E|-8-7-5-0-0-0-0-0-0-0-0-0-0-0-|
parte2
E|---------------------------------------
B|---------------------------------------
G|-------------------------1010101010--9-
D|-------------------------1010101010--9-
A|-------7------------------8-8-8-8-8--7-
E|-8-7-5-0-0-0-0-0-0-0-0-0---------------

----------------------|E X4
----------------------|B
----------------------|G
----------------------|D
----------------------|A
---0-0-0-0-0-0-0-0-0--|E

ESTRIBILLO:
B5/D5
despertar
B5/D5
resurreccion
B5/D5
delirios del ciego
B5/D5
poder ver el sol

Riff1

ESTRIBILLO

E|---------------------------------------------
B|---------------------------------------------
G|---------------------------7/9----10\9-7/10--
D|---------------------------7/9----10\9-7/10--
A|-8-7----------5------------5/7-----8\7-5/8---
E|----10-8-7-5-7--0--0-0-0--0----0-0-----------

--------------------|X4
--------------------|
---------------7/9--|
---------------7/9--|
---------------5/7--|
---0--0-0-0--0------|

E|-----------------------|X3------------------|
B|-----------------------|--------------------|
G|------------------9~-9-|------------------7~|
D|------------------9~-9-|------------------7-|
A|8-7---------------7~-7-|-8-7--------------5-|
E|----10-8-7-5-7-8-------|-----10-8-7-5-7-8---|

BASE del solo:
E5/F5/D5/C5 X4 /B5/C5/B5/A5/B5/C5/B5/D5/

Riff1

ESTRIBILLO

FINAL:
E|-------------------------------------
B|-------------------------------------
G|-------9-9---------10-9---------9-7--
D|-------9-9---------10-9---------9-7--
A|7-7-7--7-7--7-7-7--8--7--7-7-7--7-5--
E|0-0-0-------0-0-0--------0-0-0-------
-------------------------|X2|------------|
-------------------------| |------------|
-------12\11-------11\10-| |---------9--|
-------12\11-------11\10-| |---------9--|
-------10\9---------9\8--| |---------7--|
--0-0---------0-0--------| |--7-5-7-----|