Tu Eres Su Seguridad

Hermética

Genero: Rock

Tablatura

Autor: Mariano (ebianchi@ba.net)


Intro

|e5 g5 f5 | e5 g5d5|e5 g5 d5|
e---------------------------
b--------------------------
g------------------------
d----------------------------
a-----------------2----------
e-------0--2--3------3---2



e---------------------------
b--------------------------
g------------------------
d----------------------------
a-----------------2----------3-
|e5 G5 F5 | E5 G5d5|e5 G5 D5| E-------0--2--3------3---2

e---------------------------
b--------------------------
g------------------------
d----------------------------
l-----------------2------------
e-------0--2--3------3---2

rifff

e---------------------------
b--------------------------
g------------------------
d----------------------------
l------------------5 ------------
e-------0--2--3------3---2 |e5 c5 d5|d5 g5 f#5 | e5 c5 a5 |

e---------------------------
b--------------------------
g------------------------
d----------------------------
l------------------5 ------------
e-------0--2--3------3---2 x2

A:

E5 C5
Ajeno al tiempo
d5 g5 f#5 g5 f#5
se que quisieras seguir,
E5 A5
pero mil voces te ahogan
B5 E5
para que formes la cola del seguro porvenir.

Por eso te vi escapando
en las horas sin sol, sobre A:
de las miradas oscuras
que aprobaron las torturas del fugado represor.


B:

A5 B5
Son quienes no alcanzan la paz
C5 D5 D5 C5 B5
por sus viejos miedos.
b5 c5 d5
Hoy esperan de vos seguridad.


Riff x 1


Que no te demore el mundo, no,
poni‚ndote el antifaz. Sobre A:
Y buscando acomodarte
en medio del derrumbe de su decadencia.

Pues la enfermante histeria
que hay a su alrededor, Sobre A:
tratar de agotarte
para que formes parte de su digesti¢n.



Y en su falso amor,
padecen de pasi¢n. Sobre A:
Antes de arrepentirse de su error.

E5 C5 D5
Mata el miedo que guarda el animal.
E5 C5 D5
Limpia el cuerpo, pues dentro de él estas.
C5 B5 C5 D5 D5 C5 B5
Si buscas libertad, ya no andes por fuera.
B5 C5 D5
Hombre de mil nombres nace ya, nace ya.

Solo (de la puta madre e imposoble de tocar para mi)
Riff x2

Mata el miedo .........

Mata el miedo ........
final