Traición

Hermética

Album: Víctimas del Vaciamiento
Genero: Rock

Tablatura (Ver letra)

intro:X2
E|--------------------------------------------|
B|--------------------------------------------|
G|--3/4-3-----------4/5-4-----------3/4-3-----|
D|--------4~~~------------5---------------4---|
A|-2-------------3-------------3-2------------|
E|-0----------0--1-----------0-1-0------------|

E|-----------------------|
B|-----------------------|
G|-------4/5-4-----------|
D|-------------5---------|
A|----3-----------5-4-3--|
E|-0--1-----------3-2-1--|

final del intro
E|------------------------------------|
B|------------------------------------|
G|------------------------------------|
D|------------------------------------|
A|------------------------------------|
E|-0-0-0-0-0-0-0-0-0-0-0-0-0-0-0-0-0--|

Riff1:X2
ME JUGUE...
E|------------------------------------|
B|------------------------------------|
G|------------------------------------|
D|-9------10\-------------------------|
A|-7-------8\-8-8-8-8-8-8-8-8-8-8-8---|
E|----0-0-----6-6-6-6-6-6-6-6-6-6-6---|

E|--------------------------------------------|
B|--------------------------------------------|
G|--------------------------------------------|
D|9------10\----------------------------------|
A|7-------8\-11-11-11-11-11-11-11-11-11-11-11-|
E|---0-0-----9--9--9--9--9--9--9--9--9--9--9--|

Riff2:X2
E|--------------------------------------------|
B|--------------------------------------------|
G|--------------------------------------------|
D|--------------------------------------------|
A|-4-4-5-4------------------------------3-----|
E|-2-2-3-2---2-2-3-5-4-3-2--2-2-3-2-2-2-------|

E|--------------------------------------------|
B|--------------------------------------------|
G|--------------------------------------------|
D|--------------------------------------------|
A|-4-4-5-4------------------------------3^2---|
E|-2-2-3-2---2-2-3-5-4-3-2--2-2-3-2-2-2-3^2---|

Riff1

Riff2

ME CAGARON POR AMISTAD...

base del solo:
E|-----------------------------------|X3
B|-----------------------------------|
G|-----------------------------------|
D|-----------------------------5-4---|
A|-----4-----4-----4-----4-----3-2-5-|
E|-2-2-2-2-2-2-2-2-2-2-2-2-2-2-----3-|

Riff1

Riff2

Nota: Espero que les sirva de mucho es un temon
Pero el solo se los mando a parte voy por la mitad