Soy De La Esquina

Hermética

Album: Víctimas del Vaciamiento
Genero: Rock

Tablatura (Ver letra)

Riff:
G -----------------------------------------------------------
D -----------------------------------------------------------
A -----------------------------------------------------------
E 0-0-1-1-1-1-1-0-0-0-1-1-0-0-0-1-1-0-2-3-0-2-3-0-

G ----------------
D ----------------
A ----------------
E 4-3-4-4-3-4--

Canto: “Cervezas en la esquina del barrio varón...”
G ---------------------------------------------------------- |
D ---------------------------------------------------------- |
A ---------------------------------------------------------- |
E 0-0-1-1-1-1-1-0-0-0-1-1-0-0-0-1-1-0-2-3-0-2-3-- | X4

“Allí esperan mis amigos en reunión...”
G --------------------------
D --------------------------
A 3-5---3-5---3-5---3-5-
E --------------------------

“Conversando la rueda ya se formó...”
G ---------------------------------------------------------- |
D ---------------------------------------------------------- |
A ---------------------------------------------------------- |
E 0-0-1-1-1-1-1-0-0-0-1-1-0-0-0-1-1-0-2-3-0-2-3-- | X4

“Tu risa amiga alejó mi soledad...”
G --------------------------
D --------------------------
A 3-5---3-5---3-5---3-5-
E --------------------------

Riff 2:
G -------------------------------------------------------------- |
D -------------------------------------------------------------- |
A -------------------------------------------------------------- |
E 0-0-0-0-2/1-0-0-0-2-0-0-3-3-0-0-0-2-0-0-3-0-0-2-1- | X4

“Allí esperan mis amigos en reunión...”
G --------------------------
D --------------------------
A 3-5---3-5---3-5---3-5-
E --------------------------

Riff 3:
G ---------------------------------------------------------------- |
D ---------------------------------------------------------------- |
A --------------------------------6-5-6-5----------------------- |
E 1-0-0-0-0-0-0-0-0-0-0-0-0-----------0-0-0-0-5-4-5/4-3- | X4

Durante el solo:
G -----------------------------------------------------------------------------
D -----------------------------------------------------------------------------
A -----------------------------------------------------------------------------
E 1-0-0-0-0-0-0-0-0-0-0-0-0-5-5-4-0-0-0-0-0-0-0-0-0-0-0-0-5-5-4- sigue

G --------------------------------------------- |
D --------------------------------------------- |
A --------------------------------------------- |
E 0-0-0-0-0-0-0-0-0-0-0-0-5-5-4-5-4-5- | Todo X2

G -------------------------------
D -------------------------------
A -------------------------------
E 3---5---3---5---3---5---3---

“Sé que muchos caminan...”
G ---------------------------------------------------------- |
D ---------------------------------------------------------- |
A ---------------------------------------------------------- |
E 0-0-1-1-1-1-1-0-0-0-1-1-0-0-0-1-1-0-2-3-0-2-3-- | X4

“Aunque me echen hoy, mañana volveré...”
G -------------------------- |
D -------------------------- |
A 3-5---3-5---3-5---3-5- |
E -------------------------- | X2

“...Nunca más... nunca más...”
G ---------------------------------------------------------------- |
D ---------------------------------------------------------------- |
A --------------------------------6-5-6-5----------------------- |
E 1-0-0-0-0-0-0-0-0-0-0-0-0-----------0-0-0-0-5-4-5/4-3- | X2