Si Se Calla El Cantor

Hermética

Genero:

Tablatura

SI SE CALLA EL CANTOR.

e|---------------------------------|
B|---------------------------------|
G|---------------------------------| riff 1
D|---------------------------------|
A|-7--7--7--7--8--7--7--7--7-------|
E|-5--5--5--5--6--5--5--5--5-------|

Si se calla el cantor,

e|---------------------------------------------------------|
B|---------------------------------------------------------|
G|---------------------------------------------------------|
D|--9--9--10-9--7--9--9--10-9--7--9--9--9--9---------------| riff 2
A|--7--7--8--7--5--7--7--8--7--5--7--7--7--7---7--7--7--7--|
E|---------------------------------------------5--5--5--5--|

calla la vida porque la vida misma es como un canto.


si se calla el cantor, / riff 1
muere el espanto, la esperanza, la luz y la alegría. / riff 2


e|-----------------------------------------------|
B|-----------------------------------------------|
G|-----------------------------------------------| riff 3
D|-----------------------------------------------|
A|-----------------5--5--5--5--5--5---3-3-3-3-3--|
E|--5--7--8--7--5--3--3--3--3--3--3---1-1-1-1-1--|

Si se muere el cantor se quedan solos

e|------------------------------------------|
B|------------------------------------------|
G|------------------------------------------| riff 4
D|------------------------------------------|
A|--3-3---2-2-2--8-8-8-8-8-8-8-8-7-7-7-7-7--|
E|--1-1---0-0-0--6-6-6-6-6-6-6-6-5-5-5-5-5--|

los humildes gorriones de los diarios

e|---------------------------------------------|
B|---------------------------------------------|
G|---------------------------------------------| riff 5
D|---------------------------------------------|
A|--5-5-5-5-5-5-5-5-8-8-8-8-8-8-3-3-3-3-3-3-3--|
E|--5-5-3-3-3-3-3-3-6-6-6-6-6-6-1-1-1-1-1-1-1--|

los obreros del puerto se persignan

e|---------------------------------------------|
B|---------------------------------------------|
G|---------------------------------------------| riff 6
D|---------------------------------------------|
A|-3--3--3--3--3-3---7-7-7-/11~~------3-3-3----|
E|-1--1--1--1--1-1---5-5-5-/9-~~------1-1-1----|

quien habrá de luchar por su salario.

SOLO (tiene el estilo del solo de \'Ayer deseo hoy realidad\' pero es un poco mas dificil)


Si se calla el cantor, /riff 1
muere la rosa, de que sirve la rosa sin el canto /riff 2

debe el canto ser luz /riff 1
sobre los campos iluminando siempre a los de abajo. /riff 2


e|------------------------------------------|
B|------------------------------------------|
G|------------------------------------------|
D|--7--9--10-9--7--5------------------------|
A|--5--7--8--7--5--3-5--5--5--5--5-3--3--3--|
E|-------------------3--3--3--3--3-1--1--1--|

Que no calle el cantor porque el silencio

cobarde apañe la maldad que oprime /riff 4
y no saben los cantores de agachadas /riff 5
no callarán jamás de frente al crimen. /riff 6

e|-----------------------------------------------|
B|-----------------------------------------------|
G|-----------------------------------------------|
D|-----------------------------------------------|
A|-------------------7~~---7--7~~---7--5--3---7--|
E|-------------------5~~---5--5~~---5--3--1---5--|

Si se calla el cantor... calla... la vida!!!