Ser O No Ser

Hermética

Genero:

Tablatura

INTRO: un arpegio mas o menos así.

Em E9 Em E9
e|----------7----------------7----------------7----------------7--------|
B|--------8---8------------7---7------------8---8------------7---7------|
G|------9-------9--------9-------9--------9-------9--------9-------9----|
D|----9-----------9----9-----------9----9-----------9----9-----------9--|
A|--7----------------7----------------7----------------7----------------|
E|----------------------------------------------------------------------|


Como intro:

Desnudar el sin razón
que modelo nuestras vidas
Parece ser causa perdida.

Nadie apuesta detener
el motor que contamina
el aire que a diario respiras

Am
Y que respiraste ayer,
Como intro
y que mañana tal vez, no lo sé.
Por eso hoy

Am
Reflexionando en esto,
C5
la madrugada pasó,
B5 / Am / G5 / F5# / Em
y dejó otro día para ser.


BASE: (mas o menos - no la entiendo)
e|---------------------------------------------------------|
B|---------------------------------------------------------|
G|---------------------------------------------------------|
D|--------------------------/5-------------------------/4--|
A|--------------------------/3-------------------------/2--|
E|--2-3-2-0-2-3-2-0-2-3-2-0----2-3-2-0-2-3-2-0-2-3-2-0-----|


Ser guardianes o vigías de toda la miel
que guarda en toda colmena el sucio poder.
Predador, ecologista, pobre o gran señor.
Drogadependiente, doctor o paciente,
entreverado en el montón.



e|---------+----------------------|
B|---------+----------------------|(A partir de la 2da. vez
G|---------+----------------------| no hace la primer parte)
D|--2-/5-4-+-----/5-4-----2-/5-4--|
A|--2------+-4-5--------4-2-------|
E|--0------+-2-3--------2-0-------|

Vender, comprar.
Comer, cagar.
Morir, nacer.

Sufrir, gozar.
Odiar, amar.
Ser o no ser

Culpable o inocente, malviviente o juez.
O quien con sólo su firma decreta la ley.
Pronucleares informistas modelan la situación.
Más tecnología, por más energía.
Fuga radiactiva de progreso.

Vender, comprar.
Comer, cagar.
Morir, nacer.

Sufrir, gozar.
Odiar, amar.
Ser o no ser.


e|-------------------------------------------------------|
B|-------------------------------------------------------|
G|-------------------------------------------------------|
D|-------------------------------------------------------|
A|----------------------------4-------------------3-2----|
E|--0--0-0-0-0-0---0--0-0-0-0-2---0--0-0-0-0-0--0-----3--|

e|-------------------------------------------------------|
B|-------------------------------------------------------|
G|-------------------------------------------------------|
D|-------------------------------------------------------|
A|----------------------------4-------------------3-2-5--|
E|--0--0-0-0-0-0---0--0-0-0-0-2---0--0-0-0-0-0--0--------|

e|-------------------------------------------------------|
B|-------------------------------------------------------|
G|-------------------------------------------------------|
D|-------------------------------------------------------|
A|----------------------------4-------------------3-2----|
E|--0--0-0-0-0-0---0--0-0-0-0-2---0--0-0-0-0-0--0-----3--|

e|-------------------------------------------------------|
B|-------------------------------------------------------|
G|-------------------------------------------------------|
D|-------------------------------------------------------|
A|----------------------------4-------------------3-2-5--|
E|--0--0-0-0-0-0---0--0-0-0-0-2---0--0-0-0-0-0--0--------|


Solo guitarra

e|-------------------------------------------------------|
B|-------------------------------------------------------|
G|-------------------------------------------------------|
D|-------------------------------------------------------|
A|----------------------------4-------------------3-2----|
E|--0--0-0-0-0-0---0--0-0-0-0-2---0--0-0-0-0-0--0-----3--|



Derrame de combustible, exterminio forestal.
El motor contaminante no se detendrá.
Para ser hay otro día en el planeta inferior.
Como cualquier día, como todo día
Con o sin mi reflexión.

Vender, comprar.
Comer, cagar.
Morir, nacer.

Sufrir, gozar.
Odiar, amar.
Ser o no ser.

Vender, comprar.
Comer, cagar.
Morir, nacer.

Sufrir, gozar.
Odiar, amar.
Ser o no ser.

FIN:
e|-------------------------------------------------------|
B|-------------------------------------------------------|
G|-------------------------------------------------------|
D|-------------------------------------------------------|
A|----------------------------4-------------------3-2----|
E|--0--0-0-0-0-0---0--0-0-0-0-2---0--0-0-0-0-0--0-----3--|