Robo Un Auto

Hermética

Genero: Rock

Tablatura

    INTRO
||---------------|--------------|--------------|--------------|--------------|
||---------------|--------------|--------------|--------------|--------------|
||---9--9--9--9--|--------------|--7--7--7--7--|--------------|--------------|
||---9--9--9--9--|--2--4--5--6--|--7--7--7--7--|--7--6--4--6--|--4--2--------|
||---7--7--7--7--|--0--2--3--4--|--5--5--5--5--|--5--4--2--4--|--2--0--6--2--|
||---------------|--------------|--------------|--------------|--------4--0--|

||--------------|--------------|--------------|--------------|--------------|
||--------------|--------------|--------------|--------------|--------------|
||--------------|--7--7--7--7--|--------------|--------------|--------------|
||--2--4--5--6--|--7--7--7--7--|--7--6--4--6--|--4--2--------|--2--4--5--6--|
||--0--2--3--4--|--5--5--5--5--|--5--4--2--4--|--2--0--6--2--|--0--2--3--4--|
||--------------|--------------|--------------|--------4--0--|--------------|

||--------------|---------------||
||--------------|---------------||
||--7--7--7--7--|---------------||
||--7--7--7--7--|--7--6--4--6---||
||--5--5--5--5--|--5--4--2--4---||
||--------------|---------------||

RIFF 1
||---------------------|------------------------|--------------------|
||---------------------|------------------------|--------------------|
||---9--9--11--12--14--|--9--9--14--12--11--12--|--9--9--11--12--14--|
||---9--9--11--12--14--|--9--9--14--12--11--12--|--9--9--11--12--14--|
||---------------------|------------------------|--------------------|
||---------------------|------------------------|--------------------|

||--------------------||
||--------------------||
||--7--7--7--6--4--6--||
||--7--7--7--6--4--6--||
||--------------------||
||--------------------||

* RIFF 1 (REPITE)

CANTO
-----

Robo un auto ...
||------------------------|-----------------------|-----------------------|
||------------------------|-----------------------|-----------------------|
||---9--------------------|-----------------------|-----------------------|
||---9--------------------|--9--------------------|--5--------------------|
||---7--7--7--7--7--7--7--|--9--------------------|--5--------------------|
||------------------------|--7--7--7--7--7--7--7--|--3--3--3--3--3--3--3--|

Sentirse ...
||-----------------------||-----------------------|-----------------------|
||-----------------------||-----------------------|-----------------------|
||-----------------------||--9--------------------|-----------------------|
||--7--------------------||--9--------------------|--9--------------------|
||--7--------------------||--7--7--7--7--7--7--7--|--9--------------------|
||--5--5--5--5--5--5--5--||-----------------------|--7--7--7--7--7--7--7--|

||-----------------------|-----------------------|
||-----------------------|-----------------------|
||-----------------------|-----------------------|
||--5--------------------|--7--------------------|
||--5--------------------|--7--------------------|
||--3--3--3--3--3--3--3--|--5--5--5--5--5--5--5--|

Aprovechando ...
||-----------------------|-----------------------|
||-----------------------|-----------------------|
||--6--------------------|--4--------------------|
||--6--------------------|--4--------------------|
||--4--4--4--4--4--4--4--|--2--2--2--2--2--2--2--|
||-----------------------|-----------------------|
Renunciando ...
|--------------------------------------------|-----------------------|
|--------------------------------------------|-----------------------|
|--2-----------------------------------------|-----------------------|
|--2-----------------6--2-----------------4--|--6--------------------|
|--0--0--0--0--0--0--4--0--0--0--0--0--0--2--|--4--4--4--4--4--4--4--|
|--------------------------------------------|-----------------------|

|-----------------------|--------------------------------------------||
|-----------------------|--------------------------------------------||
|--4--------------------|--2-----------------------------------------||
|--4--------------------|--2-----------------6--2--------------------||
|--2--2--2--2--2--2--2--|--0--0--0--0--0--0--4--0--0--0--0--0--0--0--||
|-----------------------|--------------------------------------------||


* RIFF 1

* CANTO

RIFF 2
||---------------------|------------------------|
||---------------------|------------------------|
||---9--9--11--12--14--|--9--9--14--12--11--12--|
||---9--9--11--12--14--|--9--9--14--12--11--12--|
||---------------------|------------------------|
||---------------------|------------------------|


ESTRIBILLO
-----------

Condujeron..
||-----------------------|-----------------------|
||-----------------------|-----------------------|
||--4--------------------|--2--------------------|
||--4--------------------|--2--------------------|
||--2--2--2--2--2--2--2--|--0--0--0--0--0--0--0--|
||-----------------------|-----------------------|

Por el sendero..
||-----------------------|-----------------------|
||-----------------------|-----------------------|
||--4--------------------|--2--------------------|
||--4--------------------|--2--------------------|
||--2--2--2--2--2--2--2--|--0--0--0--0--0--0--0--|
||-----------------------|-----------------------|

Y pudieron ...
||-----------------------|-----------------------|
||-----------------------|-----------------------|
||--4--------------------|--2--------------------|
||--4--------------------|--2--------------------|
||--2--2--2--2--2--2--2--|--0--0--0--0--0--0--0--|
||-----------------------|-----------------------|

Su patron...
||-----------------------|-----------------------||
||-----------------------|-----------------------||
||-----------------------|-----------------------||
||--5--------------------|--4--------------------||
||--5--------------------|--4--------------------||
||--3--3--3--3--3--3--3--|--2--2--2--2--2--2--2--||


* RIFF 2

* SOLO (Tano) (N/A)

* RIFF 1 - CANTO - RIFF 2 - ESTRIBILLO

* RIFF 1