Prediccion

Hermética

Genero: Rock

Tablatura

Intro:
e|--------------------------------------------|
b|--------------------------------------------|x2
g|--------------------------------------------|
d|-4-4--5-4-2--4-4--5--4-4--5-4-2--4-4-5-4-7--|
a|-2-2--3-2-0--2-2--3--2-2--3-2-0--2-2-3-2-5--|
E|--------------------------------------------|

e|---------------------------------------|
b|---------------------------------------|x4
g|--0h5p0h3p0h5p0h3---0h5p0h3p0h5p0h3----|
d|---------------------------------------|
a|------------------5-----------------4--|
E|------------------3-----------------2--|

Un valiente reencarno....
e|-------------------------------|
b|-------------------------------|x2
g|-------------------------------|
d|-9-7-9-7-9-7-10--9-7-9-7-9-7-5-|
a|-7-5-7-5-7-5--8--7-5-7-5-7-5-3-|
E|-------------------------------|

Es quien dira......
e|---------------------------------------------|
b|---------------------------------------------|x2
g|---------------------------------------------|
d|-4---------2-7---------4---------2-7---------|
a|-2-2-2-2-2-0-5-7-5-4-2-2-2-2-2-2-0-5-7-5-4-2-|
E|---------------5-3-2-0---------------5-3-2-0-|

Sucio terror...
e|---------------------------------|
b|---------------------------------|
g|---------------------------------|
d|-7--------7--------7-------------|
a|-5-7-7/0--5-7-7/0--5-7-7-7-5-4-2-|
E|---5-5/0----5-5/0----5-5-5-3-2-0-|

Confusión, computación....
e|---------------------------------------------------------|
b|---------------------------------------------------------|
g|---------------------------------------------------------|x2
d|-------------5-------------7-------------5-------7-------|
a|-4-----------3-5-----------5-4-----------3-5-----5-7-7-7-|
E|-2-2-2-2-2-2---3-3-3-3-3-3---2-2-2-2-2-2---3-3-3---5-5-5-|