Para Que No Caigas

Hermética

Album: Hermética
Genero: Rock

Tablatura (Ver letra)

INTRO

GUITARRA:
Riff 1 C#5 A5
e|-----------------|---------------------------------|------------------|--------------------|
B|-----------------|---------------------------------|------------------|--------------------|
G|-----------------|---------------------------------|------------------|--------------------|X2
D|--9--------------|---------------------------------|-6----------------|-7---------------7-7|
A|--7------------7-|---------7----------7------------|-4-4-4-4-4-4-4-4-4|-5-5-5-5-5-5-5-5-5-5|
E|------5-5-5--5---|5-5-5--5---5-5-5--5----5-5-5--5--|------------------|--------------------|
PM ......... ........ ........ ........ ................................

BAJO:
G|-----------------|---------------------------------|------------------|--------------------|
D|-----------------|---------------------------------|------------------|--------------------|X2
A|--7------------7-|---------7----------7------------|-4-4-4-4-4-4-4-4-4|-5-5-5-5-5-5-5-5-5-5|
E|------5-5-5--5---|5-5-5--5---5-5-5--5----5-5-5--5--|------------------|--------------------|


VERSO 1:
GUITARRA:
E5 C#5 D
e|----------------------------------|-----------------------------------------------|
B|----------------------------------|-----------------------------------------------|
G|----------------------------------|------------------------7----------------6-6---|
D|-9--------------------------------|-6----------------------7-6--------------6-6---|
A|-7-7-7-7-7-7-7-7--7-7-7-7-7-7-7-7-|-4-4-4-4-4-4-4--4-4-4-4---4--4-4-4-4-4-4-4-4-/-|
E|----------------------------------|-----------------------------------------------|
.............................. .................... ...........
E5 C#5 D
e|----------------------------------|-----------------------------------------------|
B|----------------------------------|-----------------------------------------------|
G|----------------------------------|------------------------7----------------6-6---|
D|-9---------------7-9--------------|-6----------------------7-6--------------6-6---|
A|-7-7-7-7-7-7-7-7-5-7--7-7-7-7-7-7-|-4-4-4-4-4-4-4--4-4-4-4---4--4-4-4-4-4-4-4-4-/-|
E|----------------------------------|-----------------------------------------------|
............. .......... .................... ...........


BAJO: E C# D C#
G|----------------------------------|-----------------------------------------------|
D|----------------------------------|-----------------------------------------------|
A|-7-7-7-7-7-7-7-7--7-7-7-7-7-7-7-7-|-4-4-4-4-4-4-4--4-4-4-4-5-4--4-4-4-4-4-4-4-4-/-|
E|----------------------------------|-----------------------------------------------|
E D C# D C#
G|----------------------------------|-----------------------------------------------|
D|----------------------------------|-----------------------------------------------|
A|-7-7-7-7-7-7-7-5-7--7-7-7-7-7-7-7-|-4-4-4-4-4-4-4--4-4-4-4-5-4--4-4-4-4-4-4-4-4-/-|
E|----------------------------------|-----------------------------------------------|

E5
No Juegues a esconderte

pues el miedo a la muerte
C#5
tergiversa los valores
E5
y aunado en escapismos

de un siglo decadencia
C#5
tiembla el planeta
con tanta inconciencia


PARTE 2:

GUITARRA: D5 C#5 D5 E5 RIFF 1
e|--------------------------------------|-----------------|---------------------------------|
B|--------------------------------------|-----------------|---------------------------------|
G|----------------------------------7-7-|-----------------|---------------------------------|
D|-7---------------6--7-------------7-7-|--9------------~-|---------~----------~------------|
A|-5-5-5-5-5-5-5-5-4--5-5-5-5-5-5-5-5-5-|--7------------7-|---------7----------7------------|
E|--------------------------------------|------5-5-5--5---|5-5-5--5---5-5-5--5----5-5-5--5--|
PM ............. ........... ......... ........ ........ ........

C#5 D5 E5 RIFF 1
e|------------------|--------------------|-----------------|---------------------------------|
B|------------------|--------------------|-----------------|---------------------------------|
G|------------------|--------------------|-----------------|---------------------------------|
D|-6----------------|-7-------------7-7--|--9------------~-|---------~----------~------------|
A|-4-4-4-4-4-4-4-4-4|-5-5-5-5-5-5-5-5-5--|--7------------7-|---------7----------7------------|
E|------------------|--------------------|------5-5-5--5---|5-5-5--5---5-5-5--5----5-5-5--5--|
PM ............. ........... ......... ........ ........ ........

BAJO: D C# D E RIFF 1
G|--------------------------------------|------|---------------------------------------------|
D|--------------------------------------|------|---------------------------------------------|
A|-5-5-5-5-5-5-5-5-4--5-5-5-5-5-5-5-5-5-|--7---|---------7-----------7----------7------------|
E|--------------------------------------|------|5-5-5--5----5-5-5--5---5-5-5--5----5-5-5--5--|
C# D E Riff 1
G|------------------|--------------------|----|----------------------------------------------|
D|------------------|--------------------|----|----------------------------------------------|
A|-4-4-4-4-4-4-4-4-4|-5-5-5-5-5-5-5-5-5--|--7-|----------7-----------7----------7------------|
E|------------------|--------------------|----|-5-5-5--5----5-5-5--5---5-5-5--5----5-5-5--5--|

D5 E5+RIFF 1
Tras la cruz se descubrira la ruta enorme
C#5 D5 E5 RIFF1
Y la eternidad dará libertad a un nuevo hombre



PARTE 3

GUITARRA :
C#5 D5 C5 C D E D5
e|------------------|--------------------|---------------------------------------------------|
B|------------------|--------------------|---------------------------------------------------|
G|------------------|--------------------|---------------------------------------------------|
D|-6----------------|-7-------------7-7--|-5---------------5-/7-/9--7--------------7-7-------|
A|-4-4-4-4-4-4-4-4-4|-5-5-5-5-5-5-5-5-5--|-3--3-3-3-3-3-3--3-/5-/7--5--5-5-5-5-5-5-5-5-------|
E|------------------|--------------------|---------------------------------------------------|
PM ............. ........... ........... ...........
________________X2_______________
C5 (C D E) D5 | RIFF 2 |
e||----------------------------------------------|---------------------------------------|
B||----------------------------------------------|---------------------------------------|
G||----------------------------------------------|---------------------------------------|
D||-5---------------5-/7-/9--7--------------7-7--|-----9---------------------------------|
A||-3--3-3-3-3-3-3--3-/5-/7--5--5-5-5-5-5-5-5-5--|-----7-----9-8-----------------5-4-----|
E||----------------------------------------------|--0----0---7-6--6-6-6-6-6-6--0-----5---|
PM ........... ........... ...........

BAJO: C# D C D
G|------------------|--------------------|--------------------|-----------------------------|
D|------------------|--------------------|--------------------|-----------------------------|
A|-4-4-4-4-4-4-4-4-4|-5-5-5-5-5-5-5-5-5--|-3--3-3-3-3-3-3--3--|-----5--5-5-5-5-5-5-5-5------|
E|------------------|--------------------|--------------------|-----------------------------|
________________X2_______________
C D | RIFF 2 |
G||--------------------|-------------------------|---------------------------------------|
D||--------------------|-------------------------|---------------------------------------|
A||-3--3-3-3-3-3-3--3--|--5--5--5-5-5-5-5-5-5-5--|-----7-------------------------5-4-----|
E||--------------------|-------------------------|--0----0---7-6--6-6-6-6-6-6--0-----5---|

C#5 D5 C5 (C D E) D5
Resistirse al sucio poder es vivir sin temer
C5 (C D E) D5
salirse del molde oficial
RIFF 2 RIFF 2
ganar o perder .... desaparecer




PUENTE 1:

GUITARRA : Riff 2
e|----------------------------------------|--|------------------|----------------|
B|----------------------------------------|--|------------------|----------------|
G|----------------------------------------|x2|------------------|----------------|
D|-----9----------------------------------|--|------------------|----------------|
A|-----7-----9-7-------------------5-4----|--|------5-4-----2---|-----5-4--(2)---|
E|--0----0---7-5--5-5-5-5-5-5---0-------5-|--|---0------5---0---|--0-------(0)---|
pm ...........
BAJO:
G|----------------------------------------|--|------------------|----------------|
D|----------------------------------------|X2|------------------|----------------|
A|-----7---------------------------5-4----|--|------5-4---------|-----5-4--------|
E|--0----0---7-5--5-5-5-5-5-5---0-------5-|--|---0------5---0---|--0-------(0)---|



VERSO 2:

GUITARRA : G 5 F#5 E5 E5 F5 G5 E5
e|---------------------------------------------------------------------------------------------|
B|---------------------------------------------------------------------------------------------|
G|---------------------------------------------------------------------------------------------|
D|-12-----------------------------11--9-------------------9--10------------------12-9---------9|
A|-10-10-10-10-10-10-10-10-10-10---9--7--7-7-7-7-7-7-7-7--7---8-8-8-8-8-8-8-8-8--10-7-777777777|
E|---------------------------------------------------------------------------------------------|
PM .......................... ............... ............... ........

G 5 F#5 E5 E5 F5 G5 E5
e|------------------------------------------------------------------------------------|
B|------------------------------------------------------------------------------------|
G|------------------------------------------------------------------------------------|
D|-12-----------------------------11--9-------------------9--10------------------12-9-|
A|-10-10-10-10-10-10-10-10-10-10---9--7--7-7-7-7-7-7-7-7--7---8-8-8-8-8-8-8-8-8--10-7-|
E|------------------------------------------------------------------------------------|
PM .......................... ............... ...............


BAJO: G F# E F G E
G|----------------------------------------------------------------------------------------------|
D|----------------------------------------------------------------------------------------------|
A|----------------------------------------------------------------------------------------------|
E|---3--3--3--3--3--3--3--3--3--3---2--0--0-0-0-0-0-0-0-0--0---1-1-1-1-1-1-1-1-1---3-0-000000000|
G F# E F G E
G|--------------------------------------------------------------------------------------|
D|--------------------------------------------------------------------------------------|
A|--------------------------------------------------------------------------------------|
E|--3--3--3--3--3--3--3--3--3--3---2--0--0-0-0-0-0-0-0-0--0---1-1-1-1-1-1-1-1-1---3-0---|

* o sino igual que la guitarra



G5 F# E
Victimas de victimas transcurren sin pensar
F5 G5 E5
que dia a dia el desierto va creciendo
G5 F# E
y el descontento del joven trabajador
F5 G5 E5 Puente 2
será su perdicion...


PUENTE 2:

Riff 1 C#5 A5
e|-------------------------------------------------|------------------|--------------------|
B|-------------------------------------------------|------------------|--------------------|
G|-------------------------------------------------|------------------|--------------------|
D|-------------------------------------------------|-6----------------|-7---------------7-7|
A|-------------7----------7-----------7------------|-4-4-4-4-4-4-4-4-4|-5-5-5-5-5-5-5-5-5-5|
E|----5-5-5--5---5-5-5--5---5-5-5--5----5-5-5--5---|------------------|--------------------|
PM ........ ........ ........ ........ ............... .............

BAJo: Riff 1 C# A
G|-------------------------------------------------|------------------|--------------------|
D|-------------------------------------------------|------------------|--------------------|
A|-------------7----------7-----------7------------|-4-4-4-4-4-4-4-4-4|-5-5-5-5-5-5-5-5-5-5|
E|----5-5-5--5---5-5-5--5---5-5-5--5----5-5-5--5---|------------------|--------------------|



SOLO DE GUITARRA:


BAJO: C D C D
G|-------------------------|-------------------------|-----------------------|------------------|
D|-------------------------|-------------------------|-----------------------|------------------|
A|--3--3-3-3-3-3-3--3-3--3-|--5--5-5-5-5-5-5--5-5--5-|-3--3-3-3-3-3-3--3-3--3|-5-5-5-5-5-5-5-5-5|
E|-------------------------|-------------------------|-----------------------|------------------|
G F# E F G E
G|----------------------------------------------------------------------------------------------|
D|----------------------------------------------------------------------------------------------|
A|----------------------------------------------------------------------------------------------|
E|---3--3--3--3--3--3--3--3--3--3---2--0--0-0-0-0-0-0-0-0--0---1-1-1-1-1-1-1-1-1---3-0-000000000|
G F# E F G E
G|--------------------------------------------------------------------------------------|
D|--------------------------------------------------------------------------------------|
A|--------------------------------------------------------------------------------------|
E|--3--3--3--3--3--3--3--3--3--3---2--0--0-0-0-0-0-0-0-0--0---1-1-1-1-1-1-1-1-1---3-0---|


GUITARRA 2:
C5 D5 C5 D5
e|-------------------------|-------------------------|-----------------------|------------------|
B|-------------------------|-------------------------|-----------------------|------------------|
G|-------------------------|-------------------------|-----------------------|------------------|
D|--5---------------5-5--5-|--7---------------7-7--7-|-5---------------5-5--5|-7-------------7-7|
A|--3--3-3-3-3-3-3--3-3--3-|--5--5-5-5-5-5-5--5-5--5-|-3--3-3-3-3-3-3--3-3--3|-5-5-5-5-5-5-5-5-5|
E|-------------------------|-------------------------|-----------------------|------------------|
PM ........... ........... ........... ...........
G 5 F#5 E5 E5 FA% G5 E5
e|---------------------------------------------------------------------------------------------|
B|---------------------------------------------------------------------------------------------|
G|---------------------------------------------------------------------------------------------|
D|-12-----------------------------11--9-------------------9--10------------------12-9---------9|
A|-10-10-10-10-10-10-10-10-10-10---9--7--7-7-7-7-7-7-7-7--7---8-8-8-8-8-8-8-8-8--10-7-777777777|
E|---------------------------------------------------------------------------------------------|
PM .......................... ............... ............... ........

G 5 F#5 E5 E5 FA% G5 E5
e|------------------------------------------------------------------------------------|
B|------------------------------------------------------------------------------------|
G|------------------------------------------------------------------------------------|
D|-12-----------------------------11--9-------------------9--10------------------12-9-|
A|-10-10-10-10-10-10-10-10-10-10---9--7--7-7-7-7-7-7-7-7--7---8-8-8-8-8-8-8-8-8--10-7-|
E|------------------------------------------------------------------------------------|
PM .......................... ............... ...............


Guitarra (solo):

e|------------|-----5-------------------|----------------------------------------------------|
B|-----5-7--8~|-7-8---8-7-5-8--5-7-8-5~-|---------------------------------------------------|
G|--5---------|-------------------------|----------------------------------------------------|
D|------------|-------------------------|---------------------------------------------------|
A|------------|-------------------------|---------------------------------------------------|
E|------------|-------------------------|---------------------------------------------------|

e|------------------------------------------------------------------------------------------|
B|------------------------------------------------------------------------------------------|
G|------------------------------------------------------------------------------------------|
D|------------------------------------------------------------------------------------------|
A|------------------------------------------------------------------------------------------|
E|------------------------------------------------------------------------------------------|

e|------------------------------------------------------------------------------------------|
B|------------------------------------------------------------------------------------------|
G|------------------------------------------------------------------------------------------|
D|------------------------------------------------------------------------------------------|
A|------------------------------------------------------------------------------------------|
E|------------------------------------------------------------------------------------------|

e|------------------------------------------------------------------------------------------|
B|------------------------------------------------------------------------------------------|
G|------------------------------------------------------------------------------------------|
D|------------------------------------------------------------------------------------------|
A|------------------------------------------------------------------------------------------|
E|------------------------------------------------------------------------------------------|


PUENTE 3:

GUITARRA:
Riff 1 C#5 A5
e|-------------------------------------------------|------------------|--------------------|
B|-------------------------------------------------|------------------|--------------------|
G|-------------------------------------------------|------------------|--------------------|
D|-------------------------------------------------|-6----------------|-7---------------7-7|
A|-------------7----------7-----------7------------|-4-4-4-4-4-4-4-4-4|-5-5-5-5-5-5-5-5-5-5|
E|----5-5-5--5---5-5-5--5---5-5-5--5----5-5-5--5---|------------------|--------------------|
PM ........ ........ ........ ........ ............... .............

BAJO: Riff 1 C# A
G|-------------------------------------------------|------------------|--------------------|
D|-------------------------------------------------|------------------|--------------------|
A|-------------7----------7-----------7------------|-4-4-4-4-4-4-4-4-4|-5-5-5-5-5-5-5-5-5-5|
E|----5-5-5--5---5-5-5--5---5-5-5--5----5-5-5--5---|------------------|--------------------|

¡no,,,no,,,no¡



VERSO 3: (igual)

E5
No Juegues a esconderte

pues el miedo a la muerte
C#5
tergiversa los valores
E5
y ahogado en escapismos

de un siglo decadencia
C#5
tiembla el planeta
con tanta inconciencia.


D5 E5+RIFF 1
Tras la cruz se descubrira la puta enorme
C#5 D5 E5 RIFF1
Y la eternidad dará libertad a un nuevo hombre


ULTIMA PARTE:

GUITARRA :
C#5 D5 C5 C D E D5
e|------------------|--------------------|---------------------------------------------------|
B|------------------|--------------------|---------------------------------------------------|
G|------------------|--------------------|---------------------------------------------------|
D|-6----------------|-7-------------7-7--|-5---------------5-/7-/9--7--------------7-7-------|
A|-4-4-4-4-4-4-4-4-4|-5-5-5-5-5-5-5-5-5--|-3--3-3-3-3-3-3--3-/5-/7--5--5-5-5-5-5-5-5-5-------|
E|------------------|--------------------|---------------------------------------------------|
PM ............. ........... ........... ...........
________________X4_______________
C5 (C D E) D5 | RIFF 2 |
e||----------------------------------------------|---------------------------------------|
B||----------------------------------------------|---------------------------------------|
G||----------------------------------------------|---------------------------------------|
D||-5---------------5-/7-/9--7--------------7-7--|-----9---------------------------------|
A||-3--3-3-3-3-3-3--3-/5-/7--5--5-5-5-5-5-5-5-5--|-----7-----9-8-----------------5-4-----|
E||----------------------------------------------|--0----0---7-6--6-6-6-6-6-6--0-----5---|
PM ........... ........... ...........

Y final con RIFF 3: (lento)
E5 E5 (VII traste)
e|--------------------------------------------------------------------------------------|
B|--------------------------------------------------------------------------------------|
G|------------------------------------------------------------------------------9-------|
D|------------------------------------------------------------------------------9-------|
A|-----5-4----------5--4----------5--4-------(5)-(4)-------222222222222222(2)---7-------|
E|--0-------5---0---------5---0--------5--0----------(5)---000000000000000(0)-----------|


BAJO:
C# D C D
G|------------------|--------------------|--------------------|-----------------------------|
D|------------------|--------------------|--------------------|-----------------------------|
A|-4-4-4-4-4-4-4-4-4|-5-5-5-5-5-5-5-5-5--|-3--3-3-3-3-3-3--3--|-----5--5-5-5-5-5-5-5-5------|
E|------------------|--------------------|--------------------|-----------------------------|
________________X4_______________
C D | RIFF 2 |
G||--------------------|-------------------------|---------------------------------------|
D||--------------------|-------------------------|---------------------------------------|
A||-3--3-3-3-3-3-3--3--|--5--5--5-5-5-5-5-5-5-5--|-----7-------------------------5-4-----|
E||--------------------|-------------------------|--0----0---7-6--6-6-6-6-6-6--0-----5---|

RIFF 3 E
G|--------------------------------------------------------------------------------------|
D|--------------------------------------------------------------------------------------|
A|-----5-4----------5--4----------5--4-------(5)-(4)----------------------------7-------|
E|--0-------5---0---------5---0--------5--0----------(5)--(0)-------------(0)-----------|




C#5 D5 C5 (C D E) D5
Resistirse al sucio poder es vivir sin temer
C5 (C D E) D5
salirse del molde oficial
RIFF 2 RIFF 2
ganar o perder .... desaparecer
RIFF 2 RIFF 2
ganar o perder .... desaparecer
RIFF 3 (pero mas lento) MI5 (seguir tocando)
ganar o perde-e-e-e-e-e-e-e-e-e-eer

.... desaparecer
MI5(VII traste)
ganar o perder.



FIN: