Olvidalo Y Volvera Por Más

Hermética

Genero: Rock

Tablatura

Riff 1			     Riff 2
|-3-----2-----2-3-----2-----|----------------------------------------------|
|-----0-----0-------0-----0-|----------------------------------------------|
|---0-----0-------0-----0---|---5-----------5-7------------5------------5--|
|-2-----0-------2-----0-----|-2-5-5-4-4-5-2-5-7-7-7-7-7--2-5-5-4-4-5--2-5--|
|---------------------------|-2-3-5-4-4-5-2-3-5-7-7-7-7--2-3-5-4-4-5--2-3--|
|---------------------------|-0---3-2-2-3-0-----5-5-5-5--0---3-2-2-3--0----|

Riff 3
|------------|--------------------|
|------------|--------------------|
|-7--7--7----|-9-7-9----9-7-------|
|-7--7--7--7-|-9-7-9-10-9-7-9-10--|
|-5--5--5--7-|-7-5-7-10-7-5-9-10--|
|----------5-|--------8-----7--8--|

Riff 1
Politiqueando un doctor de la ley
gano lugar con solo prometer
carnes asadas convido al pueblo
quien dio su voto creyendo

Que poseía sensibilidad social
que cumpliria sin aflojar
con sus discursos pre-electorales
con los que tejió su fraude

Riff 2
En un avion se llevo el dineral
a donde nadie sabe
seguro de que pronto lo olvidarán
y podrá postularse otra vez

Riff 1
Fue groso el toco que pegó al rajar
amasijando la capital
el desvalije esta latente
lo sabe hasta el presidente

Riff 2
En un avion se llevo el dineral
a donde nadie sabe, porsupuesto
seguro de que pronto lo olvidarán
y podrá postularse otra vez, nuevamente

solo (Riff 3)

Riff 2
Olvidalo y volvera por mas
mostrandose confiable en los carteles
con prometer a mushos fascinara
y con su nombre pintaran paredes

Riff 3
La muerte es ocultar la verdad
el vacío es dejarse mentir
en un avion se llevó el dineral
y volvera por mas cuando lo olvides