Memorias De Siglos

Hermética

Album: Ácido Argentino
Genero: Rock

Tablatura (Ver letra)

E---------------------------------------------------------------------
B---------------------------------------------------------------------
G---------------------------------------------------------------------
D-------2-4-4/5-------2-4/5-4-4h5p4---------2-4-4/5-------------------
A-----2-------------2---------------5-----2---------------------------
E---0-------------0---------------------0-----------------------------


E-------------------|-------------------------------------------------
B-------------------|-------------------------------------------------
G-------------------|----12-12-11-9---7-7-5-4-------------------------
D-----2-5/7-5-4h5p4-|-10-12-12-11-9-5-7-7-5-4-------------------------
A---2---------------|-10-10-10-9--7-5-5-5-3-2-------------------------
E-0-----------------|-8-------------3---------------------------------

2x
E---||----------------------------------------------------||----------
B---||----------------------------------------------------||----------
G---||*-----------------------4---5-12-12-11-9---7-7-5-4-*||----------
D---||*-2-2-2/4-2---2-2-2/4-2---4-5-12-12-11-9-5-7-7-5-4-*||----------
A---||--2-----------2-----------2-3-10-10-9--7-5-5-5-3-2--||----------
E---||--0-----------0--------------------------3----------||----------

13x 5x
E---||-------------||-||-----------------------||---------------------
B---||-------------||-||-----------------------||---------------------
G---||*-----------*||-||*---------------------*||---------------------
D---||*-2-2-2/4-2-*||-||*-5-5-5-5-5-7-7-7-7-7-*||---------------------
A---||--2----------||-||--3-3-3-3-3-5-5-5-5-5--||---------------------
E---||--0----------||-||-----------------------||---------------------


E---------------------------------------------------------------------
B---------------------------------------------------------------------
G---------------------------------------------------------------------
D-------2-4-4/5-------2-4/5-4-4h5p4---------2-4-4/5-------2-5/7-5-4---
A-----2-------------2---------------5-----2-------------2-------------
E---0-------------0---------------------0-------------0---------------

13x
E--------|-----------------------||-------------------------||--------
B--------|-----------------------||-------------------------||--------
G--------|----12-12-11-9---7-5-4-||*-----------4-----4-----*||--------
D---h5p4-|-10-12-12-11-9-5-7-5-4-||*-2-2-2/4-2-2-x-x-2-x-x-*||--------
A--------|-10-10-10-9--7-5-5-3-2-||--2----------------------||--------
E--------|-8-------------3-------||--0----------------------||--------

5x
E---||---------------------------||-----------------------------------
B---||---------------------------||-----------------------------------
G---||*-------------------------*||-9-----9-----9-----9-----9---------
D---||*-5---5-5-5-5-5-7-7-7-7-7-*||-9-----9-----9-----9-----9---------
A---||--3-x-3-3-3-3-3-5-5-5-5-5--||-7-x-x-7-x-x-7-x-x-7-x-x-7---------
E---||---------------------------||-----------------------------------

5x
E---||---------------------------||-----------------------------------
B---||---------------------------||-----------------------------------
G---||*-------------------------*||-------9-----9-----------9-----9---
D---||*-5---5-5-5-5-5-7-7-7-7-7-*||-----9-9-----9---------9-9-----9---
A---||--3-x-3-3-3-3-3-5-5-5-5-5--||---7---7-x-x-7-x-x---7---7-x-x-7---
E---||---------------------------||-0-----------------0---------------

5x
E---||---------------------------||-----------------------------------
B---||---------------------------||-----------------------------------
G---||*-------------------------*||-----------------------------------
D---||*-5---5-5-5-5-5-7-7-7-7-7-*||-----------------------------------
A---||--3-x-3-3-3-3-3-5-5-5-5-5--||-----------------------------------
E---||---------------------------||-----------------------------------


E---------------------------------------------------------|-----------
B---------------------------------------------------------|-----------
G---9-----9-----9-----9-----9-----7-----7-----7-----7-----|-----------
D---9-----9-----9-----9-----9-----7-----7-----7-----7-----|-----------
A---7-x-x-7-x-x-7-x-x-7-x-x-7-x-x-5-x-x-5-x-x-5-x-x-5-x-x-|-----------
E---------------------------------------------------------|-----------


E---------------------|---------------------|-------------------------
B---------------------|---------------------|-------------------------
G---------------------|---------???---------|-------------------------
D-----9-7-5-4-4h5p4---|---------------------|-------------------------
A---7---------------7-|---------------------|-------------------------
E---------------------|-7-8-----------------|-------------------------


E---------------------------------------------------------------------
B--------------------------------------10/12-10-12/14-12-11-11h12p----
G---------11h12p11h12p11h12p11h12p11-9--------------------------------
D-----7-9-------------------------------------------------------------
A---7-----------------------------------------------------------------
E---------------------------------------------------------------------


E-----------------------------------------------12^-14^-12-15-14-12---
B---11h12p11h12p11h12p11-9-14^-12-14-14-12-11-9-----------------------
G---------------------------------------------------------------------
D---------------------------------------------------------------------
A---------------------------------------------------------------------
E---------------------------------------------------------------------


E------------------------------------------------------|--------------
B---15-13-12-10-12-13-15-13-12-10-12-13-15-13-12-10-12-|--------------
G------------------------------------------------------|--------------
D------------------------------------------------------|--------------
A------------------------------------------------------|--------------
E------------------------------------------------------|--------------


E-----------------------|--------------------|------------------------
B-----------------------|--------------------|------------------------
G----------???--------9-|--------???------11-|-9-9h11-7---------------
D-----------------------|--------------------|------------------------
A-----------------------|--------------------|------------------------
E---7-8-----------------|-7-8----------------|------------------------

5x 2x
E---||---------------------------||-||-------------||-----------------
B---||---------------------------||-||-------------||-----------------
G---||*-------------------------*||-||*-9-------9-*||-----------------
D---||*-5---5-5-5-5-5-7-7-7-7-7-*||-||*-9-----9-9-*||-----------------
A---||--3-x-3-3-3-3-3-5-5-5-5-5--||-||--7---7---7--||-----------------
E---||---------------------------||-||----0--------||-----------------