Memoria De Siglos

Hermética

Genero: Rock

Tablatura

Introducción:se espera a la guitarra que haga la primera vuelta
y luego:
x2
G -----+-----------------------
D -----+-----------------------
A -3/12+----12-12----9-8-7-----
E -----+-----------------------
Antes del canto:
G ------------------------
D ------------------------
A -3--9-9-8-7-------------
E -----------3--9-9-8-7---

G ---------------------------------+----------------------
D ---------------------------------+----5-5-4-3-----------
A -----9-7-7------9-7-7------9-7-7-+--3-----------5-5-4-3-
E 7-7---------7-7--------7-7-------+------------3---------

Aanto:
G ----------------------------------
D ----------------------------------
A ----------------------------------
E 7-7-7-7---7-7-7-7---7-9-7-7-------

Estribillo:
G ----------------------------------------------
D ----------------------------------------------
A 3-3-3-3---5-5-5-5---5-8-7-5---3-3-3-3---------
E ----------------------------------------------
Durante el solo:
G --------------------------------------------------------------
D --------------------------------------------------------------
A 3-3-3-3--5-5-5-5---5-8-7-5------------------------------10-9-7
E ----------------------------8-8-8-8-8-8--10-10-10-10-10-------
X2
G ------------9/10-10/12^+---------------------------+
D --------2--------------+---------------------------+
A ----7------------------+-3-3-3-3--5-5-5-5---5-8-7-5+
E -0---------------------+---------------------------+