La Revancha De America

Hermética

Album: Ácido Argentino
Genero: Rock

Tablatura (Ver letra)

Intro:

B5 (de fondo)

===============NOTA===================
Me parece que este riff lo hace el bajo
si lo hecen con la viola criolla safa
=======================================

e|--------------------+------------------------||
B|--------------------+------------------------||
G|--------------------+------------------------||
D|--------------------+------------------------||x2
A|--9--7--5-----------+--9--7---11--9--7h9--9--||
E|-----------9--7--5--+------------------------||

Riff1 (Atento con los PM, me parece que son 2)
e|----------------------------------------------------------------------||
B|----------------------------------------------------------------------||
G|----------------------------------------------------------------------||
D|----------------------------------------------------------------------||
A|--9--9--9--9--9--7--7--7--7--7--9--9--9--9--9--7--7--7--7--7--5--7--5-||
E|--7--7--7--7--7--5--5--5--5--5--7--7--7--7--7--5--5--5--5--5--3--4--3-||
pm .. .. .. .. .. .. .. ..

Riff2
Pueblos nativos, del suelo mío, fueron saqueados y sometidos
e|----------------------------------------------------------------------||
B|----------------------------------------------------------------------||
G|----------------------------------------------------------------------||
d|--9--7--9--7--9-----------------9--7--9--7--11------------------------||
A|--7--5--7--5--7--9--7--9--7--5--7--5--7--5--9---9--7--9--7--5---------||
E|-----------------7--5--7--5--3------------------7--5--7--5--3---------||

Riff3*
Por la siniestra garra de la madre perra, que orgullosa festeja 500 años
e|--------------------------------------+--------------------------------||
B|--------------------------------------+--------------------------------||
G|--------------------------------------+--------------------------------||
D|--7-----------------------------------+--7-----------------------------||
A|--5-5-5-5-5-5-5-5-5-5-9---------------+--5-5-5-5-5-5-5-5---9-----------||
E|----------------------7-7-7-7-7-7-7-7-+--------------------7-7-7-7-7-7-||
pm ................. ............. ............. ..........

Riff4
De haber llegado con sus calaberas, a succionarnos a imponernos fé
e|----------------------------------+------------------------------------||
B|----------------------------------+------------------------------------||
G|----------------------------------+------------------------------------||
D|--7-------------------------------+------------------------------------||
A|--5-5-5-5-5-5-5-5-9---------------+-7-----------------9----------------||
E|------------------7-7-7-7-7-7-7-7-+-5-5-5-5-5-5-5-5-5-7-7-7-7-7-7-7-7--||
............. ............. ............... .............

a estrechos togmas de su infernal sed, este camino que dan de andar
e|-------------------------------------+---------------------------------||
B|-------------------------------------+---------------------------------||
G|-------------------------------------+---------------------------------||
D|-------------------------------------+---------------------------------||
A|-7-------------------9---------------+--7--------------9---------------||
E|-5-5-5-5-5-5-5-5-5---7-7-7-7-7-7-7-7-+--5-7-7-7-7-7-7--7-7-7-7-7-7-7---||
............... ............. ........... ............

avergonsado me quiero safar
e|----------------------------||
B|----------------------------||
G|----------------------------||
D|----------------------------||
A|-7----------9---------------||
E|-5-5-5-5-5--7-7-7-7-7-7-7-7-||
....... .............

Riff2

Riff3
Estos sarpados revientan el planeta ,
al ver sus reinos en la nada ahogarse.
Observalos ostentando riquezas

Riff4
que formaron en la tierra del sol,
cristianizando, civilizando.
De ese castigo debes safar
toma revancha América

Riff1

Solo del tano Romano

Riff2
Pueblos nativos del suelo mío,
estan viciados y confundidos

Riff3
Por la siniestra garra de la madre perra,
que orgullosa festeja 500 años
De haber llegado con sus calaberas,

Riff4
a succionarnos a imponernos fé
a estrechos togmas de su infernal sed,
De ese castigo debes safar
toma revancha América

FINAL: Como la Intro

*: el ritmo es bastante jodido, hay partes que el Tano sigue
a O´connor, pero se puede hacer así y suena copado
Por ej en Re5.

Importante: en el PM se hace muy rápido

e|-------------------------------------||
B|-------------------------------------||
G|-------------------------------------||
D|--7--------------7--------------7----||
A|--5--5--5--5--5--5--5--5--5--5--5----||
E|-------------------------------------||
.......... ..........

Aguante Hermética mierda!!