Hospitalarias Realidades

Hermética

Genero: Rock

Tablatura

A esta canción nadie le da bola y es un temazo.
Saqué un pedazo del solo y me parece q esta bastante para la mierda,
fijensé y si lo sacan bien me lo mandan.

Intro y estrofas:
E D E B E D E F
|-------------------------------------------------------------|
|-------------------------------------------------------------|
|-------9------7------9------4-------9------7------9------10--|
|-------9------7------9------4-------9------7------9------10--|
|-------7------5------7------2-------7------5------7-------8--|
|--0-00---0-00---0-00---0-00----0-00---0-00---0-00---0-00-----|
PM .... .... .... .... .... .... .... ....

En la fila tempranera de hospital
el pueblo soporta la espera buscando sanar
El desgano evidente del profesional
motiva el trato prepotente de todo auxiliar

A G A C G A G A C G
|------------------------------------------------------------------------------|
|------------------------------------------------------------------------------|
|---------------------------5--------------------------------------5-----------|
|-------7---5-7-------------5-------5----------7---5-7-------------5---------5-|
|-------7---5-7-------------3-------5----------7---5-7-------------3---------5-|
|-6-5-3-5---3-5-5-5-5-6-5-3---------3----6-5-3-5---3-5-5-5-5-6-5-3-----------3-|
PM ..... .....
Medicina, tu verdad dejame ver, dejame ver tu verdad


Toda joven que asista brinda ocasión
de ordenale se desvista para observación
Experimentan sus drogas buscando el error
total el pobre no es noticia vivo, enfermo o muerto


A G A C G A G A C G
|-------------------------------------------------------------------------------
|-------------------------------------------------------------------------------
|---------------------------5--------------------------------------5------------
|-------7---5-7-------------5-------5----------7---5-7-------------5---------5--
|-------7---5-7-------------3-------5----------7---5-7-------------3---------5--
|-6-5-3-5---3-5-5-5-5-6-5-3---------3----6-5-3-5---3-5-5-5-5-6-5-3-----------3--
PM ..... .....
Medicina, tu verdad dejame ver, dejame ver tu verdad

A G A C G A G A C G F
---------------------------------------------------------------------------------------|
---------------------------------------------------------------------------------------|
----------------------------5--------------------------------------5-------------------|
--------7---5-7-------------5-------5----------7---5-7-------------5---------5---3-----|
--------7---5-7-------------3-------5----------7---5-7-------------3---------5---3-----|
--6-5-3-5---3-5-5-5-5-6-5-3---------3----6-5-3-5---3-5-5-5-5-6-5-3-----------3---1-----|
PM ..... .....
Medicina, tu verdad dejame ver, dejame ver tu verdaaaad

Solo:
B B C-B B
|----------------------------------------------
|----------------------------------------------
|--9^11-9p7h9--/9-7----------------------------
|-------------------10-9--9-7------------------
|-----------------------------10-9-7-----------
|------------------------------------10-9-5-7--
PM .................

A-B B C-B B
-------------------------7h10p7---7h10p7---7h10p7---7h10p7----------------------
--------------------------------7--------7--------7-------7-------------------
-------------9^11^9p7h9---------------------------------------------------------
----------9-------------------------------------------------------------------------
----------------------------------------------------------------------------------
--7-h9h10----------------------------------------------------------------------

E F C B E F C D
---------------------------------------------------|
--tapping-----------------tapping------------------|
---------------------------------------------------|
---------------------------------------------------|
---------------------------------------------------|
---------------------------------------------------|

Las consultas mezquinas le dan razón
y la desconfianza maquina en mi reflexión
Quiera Dios sea por vida esta decisión
de doctorarse en medicina por vocación

Por la vida
y no por más que brindar bien
y no por mas que sanar

Por la vida
y no por más que brindar bien
y no por mas que sanar


E D E B F E D E A# A G E
|--------------------------------------------------------------|
|--------------------------------------------------------------|
|-------9------7------9-------10------9------7------9----------|
|-------9------7------9-------10------9------7------9-8-7-5-2--|
|-------7------5------7--------8------7------5------7-8-7-5-2--|
|--0-00---0-00---0-00---77777----0-00---0-00---0-00---6-5-3-0--|
PM .... .... .... ..... .... .... .... ......


Aguante el Metal Argento!

V8
Hermetica Horcas Rata Blanca Logos

Freyre, Córdoba (Argentina)