Gil Trabajador

Hermética

Genero: Rock

Tablatura

Riff:
e|-------------------------------------------------|
b|-------------------------------------------------|
G|-7-------------7-------------7-------------9/7-9-|
D|-5-------------5-------------5-------------7/5-7-|
A|-------------------------------------------------|
E|---0-0-0-0-0-0---0-0-0-0-0-0---0-0-0-0-0-0-------|

e|-------------------------------------------------|
b|-------------------------------------------------|
G|-7-------------7-------------7-------------7-----|
D|-5-------------5-------------5-------------5-7-7-|
A|---------------------------------------------5-5-|
E|---0-0-0-0-0-0---0-0-0-0-0-0---0-0-0-0-0-0-------|

\'El tormento del vino artificial...\'
e|-----------------------------------------|
b|-----------------------------------------|
G|-----------------------------------------|
D|---------------------------------9-9-7-9-|
A|-5-----------------------------2-7-7-5-7-|
E|-3-3-3-3-3-3-3-3-3-3-3-3-3-3-3-0---------|

e|-------------------------------------------|
b|-------------------------------------------|
G|-------------------------------------------|
D|---------------------------------9-9---9-9-|
A|-5-----------------------------2-7-7---7-7-|
E|-3-3-3-3-3-3-3-3-3-3-3-3-3-3-3-0-----------|

e|-------------------------------------------|
b|-------------------------------------------|
G|-------------------------------------------|
D|---------------------------------9-9-7-9-7-|
A|-5-----------------------------2-7-7-5-7-5-|
E|-3-3-3-3-3-3-3-3-3-3-3-3-3-3-3-0-----------|

e|-----------------------------------|
b|-----------------------------------|
G|-----------------------------------|
D|-5-------------5---7-------------7-|
A|-3-3-3-3-3-3-3-3---5-5-5-5-5-5-5-5-|
E|-----------------------------------|

Riff y lo mismo de arriba...

\'Con el cual no logro esquivar...\'
e|-----------------------------------------------------------|
b|-----------------------------------------------------------|
G|-----------------------------------------------------------|
D|-4-------------4-5-------------5-2-------------2-7-7---7-7-|
A|-2-2-2-2-2-2-2-2-3-3-3-3-3-3-3-3-0-0-0-0-0-0-0-0-5-5---5-5-|
E|-----------------------------------------------------------|

Solo = en SI y despues en RE, con algo de tapping,
pero no me puse a sacarlo bien...

Se repite lo de arriba y al final:
e|-----------------------------------------------|
b|-----------------------------------------------|
G|-7-----7-----7-----7-----7-5-----7-----9-----9-|
D|-5-7-7-5-7-7-5-7-7-5-7-7-5-5-----7-----9-----9-|
A|---5-5---5-5---5-5---5-5---3-----5-----7-----7-|
E|-----------------------------------------------|