En Las Calles De Liniers

Hermética

Album: Ácido Argentino
Genero: Rock

Tablatura (Ver letra)

Intro
[Pm----] [Pm-----] [Pm-------]
E--------||---------------------------------------------------------|
B--------||---------------------------------------------------------|
G--------||---------------------------------------------------------|
D--2-----||-3-3-3-3-3-3-\-5-5-5-5-5-5-\-7-7-7-7-7-7-\-10-7-\-10-----|
A----3-2-||-3-3-3-3-3-3-\-5-5-5-5-5-5-\-7-7-7-7-7-7-\-10-7-\-10-----|
E--------||-1-1-1-1-1-1-\-3-3-3-3-3-3-\-5-5-5-5-5-5-\--8-5-\--8-----|

[Pm-----]
E------------------------------------------------------------------||
B------------------------------------------------------------------||
G------------------------------------------------------------------||
D--------------3-3-3-3-3-3-\-5-------10--9--7--------REPITE--------||
A--------------3-3-3-3-3-3-\-5-------10--9--7----------------------||
E--------------1-1-1-1-1-1-\-5--------8--7--5----------------------||

[Pm--------------------] [Pm---------------------]
E--||--------------------------------------------------------------||
B--||--------------------------------------------------------------||
G--||-8-8-8-8-8-8-8-8-8-8-8-8-8-8----------------------------------|| x4
D--||-8-8-8-8-8-8-8-8-8-8-8-8-8-8----7-7-7-7-7-7-7-7-7-7-7-7-7-7---||
A--||-6-6-6-6-6-6-6-6-6-6-6-6-6-6----7-7-7-7-7-7-7-7-7-7-7-7-7-7---||
E--||--------------------------------5-5-5-5-5-5-5-5-5-5-5-5-5-5---||

[Pm--------------------] [Pm---------------------]
E--||--------------------------------------------------------------||
B--||--------------------------------------------------------------||
G--||-5-5-5-5-5-5-5-5-5-5-5-5-5------------------------------------|| x4
D--||-5-5-5-5-5-5-5-5-5-5-5-5-5-5----7-7-7-7-7-7-7-7-7-7-7-7-7-7---||
A--||-3-3-3-3-3-3-3-3-3-3-3-3-3-3----7-7-7-7-7-7-7-7-7-7-7-7-7-7---||
E--||--------------------------------5-5-5-5-5-5-5-5-5-5-5-5-5-5---||

(1er Solo)

E--||---------------------------------------------||----------------|
B--||-----------------H-P-------------------------||----------------|
G--||-----5-4-5-7-5--4^5^4----------5-4-7-5-4----*||---P.H----------|
D--||---7------------------7------7-----------7--*||---<7>----------|
A--||-8-------------------------8-----------------||----------------|
E--||---------------------------------------------||----------------|

(2do Solo)

E-------------------------------------------------------------------|
B-------------------------------------------------------------------|
G----------5-5-4-5-7-5-4-5-----------5-4-7-5-4----------------------|
D--------7-------------------------7-----------7--------------------|
A------8-------------------------8----------------------------------|
E-------------------------------------------------------------------|

Final

E-------------------------------------------------------------------|
B-------------------------------------------------------------------|
G------8-8-8-------8-8-8-------8-8-8-------6--5--3------------------|
D------8-8-8---7---8-8-8---7---8-8-8---7---6--5--3------------------|
A------6-6-6---7---6-6-6---7---6-6-6---7---4--3--1------------------|
E--------------5-----------5-----------5----------------------------|