Destrucción

Hermética

Genero: Rock

Tablatura

Intro(Riff1):En la intro empieza así, cuando terminan las estrofas
empieza con la segunda parte.

2da. parte
e|-----------------------------+-----------------|
B|-----------------------------+-----------------|
G|-----------------------------+-----------------|
A|-----------------------------+-(5)---7---------|
D|-7---------------------------+-(3)---5---------|
E|-5-5-5-5-5-5-5-5-5-5-5-5-5-5-+-----------------|
PM .........................

Riff2
e|-----------------------------------------------|
B|-----------------------------------------------|
G|-----------------------------------------------|
A|-------------------4---------------------------|
D|-7-------5---------2-2-2-2-2-5-----------------|
E|-5-5-5-5-3-3-3-3-3-----------3-----------------|
..... ....... .......

Riff3
e|-----------------------------------------------|
B|-----------------------------------------------|
G|-----------------------------------------------|
A|-----------------------------------------------|
D|-7---------5-----------3-----------------------|
E|-5-5-5-5-5-3-3-3-3-3-3-1-1-1-1-1-1-------------|
....... ......... ..........
Riff4
e|-----------------------------------------------|
B|-----------------------------------------------|
G|-----------------------------------------------|
A|-----------------------------------------------|
D|-7---------5-----------------------------------|
E|-5-5-5-5-5-3-3-3-3-3---------------------------|
....... .......

Riff1
Ya no creo en nadie, ya no creo en ti,
Riff2 Riff1
ya no creo en nadie porque nadie crée en mi.

Riff1
No dejan pensar, no dejan crecer,
Riff2 Riff1
no dejan mirar pero con suerte puedo ver.

Riff3 Riff1
La decisión del juicio final,
Riff4 (Sin tocar) Riff1
sera la solución: DESTRUCCIÓN!

(Igual al 1est)
Parece mentira, tanta estupidez,
tanta hipocrecia, tanta boludez.

Gente en la miseria, eso es lo que son,
conformando el planeta de llanto y de dolor.

La decisión del juicio final,
sera la solución.

Solo: Riff1 2da. guitarra

Se siente en el aire, la fuerte tensión,
de esta imponente furia de mi motor.

Arrasará con todos y también con vos
y moriras llorando por blando que sos

La decisión del juicio final,
A5 y Riff5
sera la solución: DESTRUCCIÓN!

Final(Riff5):

e|----------------------------------------------|
B|----------------------------------------------|
G|----------------------------------------------|
D|--5--7--5-------------------------------------|
A|--3--5--3--(7)~----(7)~----(7)~----(7)~-------|
E|-----------(5)~----(5)~----(5)~----(5)~-------|
\repite varias veces y + rapido/

e|-----------------------|
B|-----------------------|
G|-----------------------|
D|--5--7--5--------------|
A|--3--5--3--7-----------|
E|-----------5-----------|

Referencias:
(x):dejar que x suene
~:vibrato(vibrar)
PM..: Palm Muted(enmudecer con palma derecha)