Cambalache

Hermética

Genero: Rock

Tablatura

El mundo fue y será
una porquería, ya lo sé.
En el quinientos diez
y en el dos mil, también.

G#5-A5-A#5
B5
Que siempre ha habido chorros,
E5*-B5
maquiavelos y estafaos,
E5*-B5
contentos y amargaos,
varones y dublés.

A5
Pero que el siglo veinte
B5
es un despliegue
G5
de maldá insolente,
E5*
ya no hay quien lo niegue.

A5
Vivimos revolcaos en un merengue
B5
y en el mismo lodo
G5
todos manoseaos.

E5*

Hoy resulta que es lo mismo
A5
ser derecho que traidor,
A5 B5
ignorante, sabio, chorro,
E5
generoso o estafador...

E5*
¡Todo es igual!
A5
¡Nada es mejor!
B5
Lo mismo un burro
E5
que un gran profesor.

E5* A5
No hay aplazaos ni escalafón,
B5 E5
los ignorantes nos han igualao.

A5 C#5 G#5/A5
Si uno vive en la impostura
A5 C#5 G#5/A5
y otro roba en su ambición,
A5
da lo mismo que sea cura,
E5*
colchonero, Rey de Bastos,
B5 E5
caradura o polizón.

------------------
|Todo de nuevo|
------------------
------------------------------------------
¡Qué falta de respeto,
qué atropello a la razón!
Cualquiera es un señor,
cualquiera es un ladrón...

Mezclao con Stavisky
va Don Bosco y La Mignon,
Don Chicho y Napoleón,
Carnera y San Martín...

Igual que en la vidriera
irrespetuosa
de los cambalaches
se ha mezclao la vida,

y herida por un sable sin remache
ves llorar La Biblia
junto a un calefón.
QUEMANDOSEEE!
------------------------------------------

*Solo*

e|-----------------------------------|
B|-------14-12-----------------------|
G|-11------------14-13--13-14-11-----|
D|-----------------------------------|
A|-----------------------------------|
E|-----------------------------------|

e|--------------------------------------------|
B|--------------------------------------------|
G|--------------------------11b13--11h9-11----|
D|----------------------11--------------------|
A|--------------9-11-12-----------------------|
E|----9-10-12---------------------------------|


e|-----------------------9-------------------------------------|
B|--12b14--12-10-9---------12-10-9-12-10-9---10-9--------------|
G|-----------------11-----------------------------11----11-9-11|
D|-------------------------------------------------------------|
A|-------------------------------------------------------------|
E|-------------------------------------------------------------|

e|------------------------------------|
B|------------------------------------|
G|-------------------------11--9------|
D|-----------------------11-----------|
A|----------------9-11-12-------------|
E|-------9-10-12----------------------|

------------------------------------------
Siglo veinte, cambalache
problemático y febril...
El que no llora no mama
y el que no afana es un gil.

¡Dale, nomás...!
¡Dale, que va...!
¡Que allá en el Horno
nos vamo a encontrar...!

No pienses más; sentate a un lao,
que a nadie importa si naciste honrao...
Es lo mismo el que labura
noche y día como un buey,

que el que vive de los otros,
que el que mata, que el que cura,
o está fuera de la ley

Termina con E5
//////////////////////////////////////////////////

E5*
e|----------------|
B|----------------|
G|---9-9---9-9----|
D|---9-9---9-9----|
A|---7-7-0-7-7----|
E|----------------|
*

-*-
Cualquier duda diegotek_kowy@hotmail.com


**-Aguante el Metal Argento loco-**