Ayer Sueño Hoy Realidad

Hermética

Genero:

Tablatura


SOLO DEL TANO


----------------------------------------------------------
---6--------------8-------------9---8-6-8-6-4-6--------6--
---6--------------8------------------------------------6--
---6--------------8------------------------------------6--
-------4--6--7--------6--8--------------------------------
----------------------------------------------------------


----------------------------------------------------------
-------------8------------9---8-9-11--9-8-9-8-6-----------
-------------8------------------------------------------5-
-------------8---------------------------------------6----
-4--6--7----------6--8------------------------------------
----------------------------------------------------------


----------------------------------------------------------
----4---------------4---9--8----9--8--6------------------4
-6-----------5--6-------------------------5---------5--6--
---------6--------------------------------------6---------
----------------------------------------------------------
----------------------------------------------------------


--------------------6----------6--------------------------
-------------4----------9-8-9-----9-8-9-8--4-6-----------6
------5--6-----------------------------------------6------
--6------------------------------------------------6--6---
---------------------------------------------------4------
----------------------------------------------------------


----------------------------------------------- LOS ACORDES DE A-
-----------------8-----------6---8---9---11---- BAJO SON LOS UL-
--6------8----------8-------------------------- TIMOS DE ESTE SO-
-----6---8-8-----------8----------------------- LO...¡DEMOSTRÁ TU
---------6------------------------------------- VELOCIDAD!
-----------------------------------------------


(SI)(2ª CUERDA) ---14-13-11-11-14-13-11-11-14-13-11-11-14-13-11-11

(SI)(2ªCUERDA) ---16-14-13-13-16-14-13-13-16-14-13-13-16-14-13-13


COSTO PERO SE PUDO ... ¡¡¡¡AGUANTE HERMÉTICA CARAJO!!!!