Ayer Deseo, Hoy Realidad

Hermética

Genero: Rock

Tablatura

G|--------------------------------
D|-3-2-3-------------------------- |
A|-------3---3---------------3---- |
E|---------4-----6-4-6---4-3---1-- |
|
G|---------------------------------------------- |
D|-3-2-3-----------3-4-----3-2---------3-2-3---- |
A|-------3---5---5-----4-------3-------------3-- |
E|---------4-----------------------4-1---------4 |
|
“Se me cumple… …hoy el sueño… |
G|---------------------------------------------------- |
D|---------------------------------------------------- |
A|-1-1|1|1|1|1|1|1|1|1|1|1|1|3-3|3|3|3|3|3|3|3|3|3|3|3 |
E|---------------------------------------------------- |
|
…pendejo da ayer… …y fue |
G|---------------------------------------------------- |
D|---------------------------------------------------- |
A|---------------------------------------------------- |
E|-1-1|1|1|1|1|1|1|1|1|1|1|1|1-1|1|1|1|1|1|1|1|1|1|1|1 |
|
…por rebelde que al metal pesado… |
G|--------------------- |
D|--------------------- |
A|--1-1--1-1--3-3--3--3 |
E|--------------------- |
|
…me aguante… |
G|------------------------------------------------- |
D|------------------------------------------------- |
A|------------------------------------------------- |
E|-1|1|1|1|1|1|1|1|1|1|1|1|1|1|1|1-1|1|1|1|1|1|1-1- |
|
…salir de gira… …para llevarte… |
G|---------------------------------------------------------- |
D|---------------------------------------------------------- |
A|---------------------------------------------------------- |
E|-4|4|4|4|4|4|4|4|4|4|4|4|4|4|4|4|4-4|4|4|4|4|4|4|4|4|4|4|4 | Parte
| A
…mi buen concierto… |
G|---------------------------------- |
D|---------------------------------- |
A|------------4-3--------------4-3-1 |
E|-1|1|1|1|1|1----4-1|1|1|1|1|1----- |
|
…exalta mi vida… …cumple con lo que… |
G|---------------------------------------------------------- |
D|---------------------------------------------------------- |
A|---------------------------------------------------------- |
E|-4|4|4|4|4|4|4|4|4|4|4|4|4|4|4|4|4-4|4|4|4|4|4|4|4|4|4|4|4 |
|
…fue mi deseo… |
G|---------------------------------- |
D|---------------------------------- |
A|------------4-3--------------4-3-1 |
E|-1|1|1|1|1|1----4-1|1|1|1|1|1----- |
|
…cuando ya lejos de la… …rutas saldar para llegar… |
G|---------------------------------------------------- |
D|---------------------------------------------------- |
A|-4-----6-----8-----4-----1-1|1|1|1|1|1|1|1|1|1|1|1|1 |
E|---------------------------------------------------- |
|
…mostrar que soy quien quise ser… |
G|----------------------------------------------------- |
D|----------------------------------------------------- |
A|-1|1|1|1|1|1|1|1|1|1|1|1|3-3|3|3|3|3|3|3|3|3|3|3|3|3- |
E|----------------------------------------------------- /

Repite todo lo de arriba desde el comienzo, después:

1:43 (empieza el solo del Tano)
(2 veces)
G|-----------|-------------------------------------|
D|-3-2-3-----|--------3--------5-3--3-3-3----------|
A|-------3-1-|-4--4-4---6--6-6---------------------|
E|-----------|----------------------------1--1-1-1-|


G|----------------------------------------------------------------
D|---------------------------------------------------------------- |
A|---------------------------------------------------------------- |
E|-4|4|4|4|4|4|4|4|4|4|4|4|4|4|4|4|4|4|4|4|4|4|4|4|4|4|4|4|4|4|4|4 |Parte
| B
G|---------------------------------------------------------------- |
D|---------------------------------------------------------------- |
A|---------------------------------------------------------------- |
E|-1|1|1|1|1|1|1|1|1|1|1|1|1|1|1|1|1|1|1|1|1|1|1|1|1|1|1|1|1|1|1|1 /

Repite parte B, después:

2:09
G|------------------------------------------------------------------
D|--------3--------5------------------------------------------------
A|-4--4-4---6--6-6--------------------------------------------------
E|-------------------1-1|1|1|1|1|3-3|3|3|3|3|4-4|4|4|4|4|6-6|6|6|6|6


G|-------------------
D|-------------------
A|-4-----6-----------
E|-------------1-----

Repite parte A, después:

Final
G|------------------------
D|-3-2-3------------------
A|-------3-----3----------
E|---------4------4-3-1---

x|x : tocar las dos notas consecutivamente rápido por Ej. 4|4


Ayer Deseo, Hoy Realidad (Iorio)

Se me cumple
hoy el sueño pendejo de ayer.
Y fue por rebelde
que al metal pesado me aguante.

Salir de gira
para llevarte en vivo el concierto.
Exalta mi vida,
cumple con lo que fue mi deseo.

Cuando ya lejos de la ciudad central
los horizontes me ven.
Rutas saldar, para llegar
y mostrar que soy quien quise ser.

Triste siempre
esperaba yo esta suerte.
Y no será el pedo,
pues de ayer vengo sinchando por verdad.

Escuchen ellos
la razón y el por qué de mi cantar.
Que donde llega
seguro alguien sintiéndolo esta.

Hoy sin pensar en ganar o perder,
disfrutando cada instante.
De mi soñar, hecho real,
al cual de pibe aposté.

Se me cumple
hoy el sueño pendejo de ayer.
Y fue por rebelde
que al metal pesado me aguante.

Salir de gira
para llevarte en vivo el concierto.
Exalta mi vida,
cumple con lo que fue mi deseo.

Cuando ya lejos de la ciudad central
los horizontes me ven.
Rutas saldar, para llegar
y mostrar que soy quien quise ser.

Mientras su musica se siga tocando y escuchando el carpo jamas morira,
vivira eternamente en la memoria de todos.