Amarguras

Hermanos Miño Naranjo

Genero:

Tablatura

Tono: Em
Ritmo: Albazo

C E7 Am
E||--12----12----12----15----|--12----12----10-----8----------|
B||--13----13----13----13----|--13----13----12----10----10----|
G||--------------------------|---------------------------9----|
D||--------------------------|--------------------------------|
A||--------------------------|--------------------------------|
E||--------------------------|--------------------------------|


F Em
---------8----12----10-----8----10-----8----10-----8----------|
--10----10----13----12----10----12----10----12----10----10----|
---9-----------------------------------------------------9----|
--------------------------------------------------------------|
--------------------------------------------------------------|
--------------------------------------------------------------|
C E7 Am
--12----12----12----15----|--12----12----10-----8----------|
--13----13----13----13----|--13----13----12----10----10----|
--------------------------|---------------------------9----|
--------------------------|--------------------------------|
--------------------------|--------------------------------|
--------------------------|--------------------------------|
F Em
---------8----12----10-----8----10-----8----10----12----|
--10----10----13----12----10----12----10----10----12----|
---9----------------------------------------------------|
--------------------------------------------------------|
--------------------------------------------------------|
--------------------------------------------------------|

Em
--------------12----12----------12----|--------------12----12----------12----|
--------12----------------12----------|--------12----------------12----------|
--12----------------------------------|--12----------------------------------|
--------------------------------------|--------------------------------------|
--------------------------------------|--------------------------------------|
--------------------------------------|--------------------------------------|
B7 Em
--------------12----12----------12----|--------------12---------------12----||
--------12----------------12----------|--------12---------------12----------||
--12----------------------------------|--12---------------------------------||
--------------------------------------|-------------------------------------||
--------------------------------------|-------------------------------------||
--------------------------------------|-------------------------------------||

C E7 Am
Yo llevo en el alma una amargura,
F Em
dolorosa espina que me mata,
C E7 Am
es que tu partida me tortura
F Em
y en silencio lloro mi dolor.

C E7 Am
Fuiste tú mi fe y mi esperanza
F Em
meta de mis sueños juveniles,
C E7 Am
eres la ilusión que no se alcanza
F Em
eres tú la dueña de mi amor.

C E7 Am
E||--12----12----12----15----|--12----12----10-----8----------|
B||--13----13----13----13----|--13----13----12----10----10----|
G||--------------------------|---------------------------9----|
D||--------------------------|--------------------------------|
A||--------------------------|--------------------------------|
E||--------------------------|--------------------------------|


F Em
---------8----12----10-----8----10-----8----10-----8----------|
--10----10----13----12----10----12----10----12----10----10----|
---9-----------------------------------------------------9----|
--------------------------------------------------------------|
--------------------------------------------------------------|
--------------------------------------------------------------|
C E7 Am
--12----12----12----15----|--12----12----10-----8----------|
--13----13----13----13----|--13----13----12----10----10----|
--------------------------|---------------------------9----|
--------------------------|--------------------------------|
--------------------------|--------------------------------|
--------------------------|--------------------------------|
F Em
---------8----12----10-----8----10-----8----10----12----|
--10----10----13----12----10----12----10----10----12----|
---9----------------------------------------------------|
--------------------------------------------------------|
--------------------------------------------------------|
--------------------------------------------------------|

Em
--------------12----12----------12----|--------------12----12----------12----|
--------12----------------12----------|--------12----------------12----------|
--12----------------------------------|--12----------------------------------|
--------------------------------------|--------------------------------------|
--------------------------------------|--------------------------------------|
--------------------------------------|--------------------------------------|
B7 Em
--------------12----12----------12----|--------------12---------------12----||
--------12----------------12----------|--------12---------------12----------||
--12----------------------------------|--12---------------------------------||
--------------------------------------|-------------------------------------||
--------------------------------------|-------------------------------------||
--------------------------------------|-------------------------------------||

C
Quiera Dios que vuelvas algún día

para poner fin a mi tormento
C E7 Am
solo tu regreso calmaría
F Em
ya que por tu ausencia me lamento
C E7 Am
Vuelve pronto vuelve amada mía
F Em
para así calmar este sufrir.

Abril 2017
Hola un gusto colaborar
Me llamo Luis Cubero de Quito - Ecuador
Que viva la música Ecuatoriana
Cualquier duda a undeseounico@gmail.com