Dónde Estás?

Hermanos De La Calle

Genero:

Tablatura

 ---2--------------------2-----------------0--------------------------
----3--------------------3---------------2---------------------------
----2-------------------4---------------------------------------------
---0-------------------4------------------------1/2 1/2--0----0-------
---------------0------2----------------0-------------------2----------
------------3----------------------3-------------------------------

------------------------0-------------------------------------------
-----------------------2--------------------------------------------
----------------------2--------------------------------------------
---------------------2----------------0------------------------------
--0----2---4---0----0-----0--0--2--4---------------------------------
-------------------------------------------------------------------

D A
paso muchos dias de no dormir

por culpa de una mujer
G
q me hizo feliz
D
y esas noches tibias q no voy a olvidar
A
jamas

D A
ustedes me conocen saben como soy yo
G
soy un tipo de ley nunca aflojo
D A
pero esta vez tuve q llorar sin parar
C G
por q ella se fueeeeeeeeee y nunca volvera
C D
el viento se la llevo a otro lugaaaar y ayyyy
Bm A D Bm A
ay donde estas y ayyyyyyyyy ay donde vas amor
D Bm A
y ayyyyyyy ay quien se la llevo
G D A
yo sigo acaaaaaa nunca te voy a olvidar aaaaa


BUENO HASTA ACA