Agitando Pañuelos

Hermanos Abalos

Genero:

Tablatura

     Gm7               Am7/5-                         D7
E||-----------------|------------------------------|-----------------|
B||-----------------|------------------------------|-----------------|
G||-----------------|------------------------------|-----------------|
D||-----------------|------------------------------|-----------------|
A||-----------------|------------------------------|-----------------|
E||-----------------|------------------------------|-----------------|

Gm7 Gm7 D7 Bb6 D7
-----------------|-----------------|-----------------|-----------------|
-----------------|-----------------|-----------------|-----------------|
-----------------|-----------------|-----------------|-----------------|
-----------------|-----------------|-----------------|-----------------|
-----------------|-----------------|-----------------|-----------------|
-----------------|-----------------|-----------------|-----------------|

Gm7 Gm7 G7 Cm7
-------------------||---------------------|-------------------|
-------------------||---------------------|-------------------|
-------------------||*--0-----------------|--0----------0-0-3-|
-----------------4-||*--------------0-1-3-|-------------------|
-------------------||---------------------|-------------------|
-------------------||---------------------|-------------------|

F7 Bb7 D7 Gm7 Gm/F Eb7
---------------------|-----------------|------------------------|
---------------------|-----------------|------------------------|
--3---2-2-2-0-----0--|-----------------|--0---0-------0------0--|
---------------4-----|--0--------2--4--|-----------4------4-----|
---------------------|-----------------|------------------------|
---------------------|-----------------|------------------------|

D7 D/C Eb6 D7 Gm7
--------------------|----------------------|-----------------|
--------------------|----------------------|-----------------|
--2-------0------0--|----------------------|-----------------|
-------4------4-----|--0---------0---------|-----------2--4--|
--------------------|-------2--3----3-2-3--|--1--------------|
--------------------|----------------------|-----------------|

Gm7 D7 D/C Bb6 D7
--------------------|--------------------|----------------------|
--------------------|--------------------|----------------------|
--0---0----0-----0--|--2-------0------0--|----------------------|
--------4-----4-----|-------4------4-----|--0---------0---------|
--------------------|--------------------|-------2--3----3-2-3--|
--------------------|--------------------|----------------------|

Gm7 Gm7 Gm7 G7 Cm7
------------------||-----------------|-----------------|-------------------|
------------------||-----------------|-----------------|-------------------|
-----------------*||-----------------|--3--------2---2-|--0--------0---0-2-|
---------------4-*||-----------0---0-|-----------------|-------------4-----|
--1---------------||--1--------------|-----------------|-------------------|
------------------||-----------------|-----------------|-------------------|

F7 Bb7 D7 Gm7 Gm/F Eb7
---------------------|-----------------|------------------------|
---------------------|-----------------|------------------------|
--3---2-2-2-0-----0--|-----------------|--0---0-------0------0--|
---------------4-----|--0--------2--4--|-----------4------4-----|
---------------------|-----------------|------------------------|
---------------------|-----------------|------------------------|

D7 D/C Bb6 D7 Gm7
--------------------|----------------------|-----------------|
--------------------|----------------------|-----------------|
--2-------0------0--|----------------------|-----------------|
-------4-----4------|--0---------0---------|-----------2--4--|
--------------------|-------2--3----3-2-3--|--1--------------|
--------------------|----------------------|-----------------|

Gm7 D7 D/C Bb6 D7
--------------------|--------------------|----------------------|
--------------------|--------------------|----------------------|
--0---0----0-----0--|--2-------0------0--|----------------------|
--------4-----4-----|-------4-----4------|--0---------0---------|
--------------------|--------------------|-------2--3----3-2-3--|
--------------------|--------------------|----------------------|

Gm7
---------------||
---------------||
---------------||
---------------||
--1------------||
---------------||