Apasionadamente

Hermanas Mendoza Sangurima

Genero:

Tablatura

Ritmo: Pasacalle
Tono: Em

G
E||--7----7----7----7----|--7----7----|--7----7----7----|--5----|
B||--8----8----8----8----|--8----8----|--8----8----8----|--7----|
G||----------------------|------------|-----------------|-------|
D||----------------------|------------|-----------------|-------|
A||----------------------|------------|-----------------|-------|
E||----------------------|------------|-----------------|-------|
B7 Em
--5----5----5----7----|--5----7----|--5----5----5----|--3----|
--7----7----7----7----|--7----7----|--7----7----7----|--5----|
----------------------|------------|-----------------|-------|
----------------------|------------|-----------------|-------|
----------------------|------------|-----------------|-------|
----------------------|------------|-----------------|-------| 2X

------------3----||
-------5---------||
--4--------------||
-----------------||
-----------------||
-----------------||


Em G
Vengo a decirte que te estoy queriendo,
B7 Em Em-Em-Em
Desde el momento en que te conocí.
Em G
Que tu recuerdo me esta consumiendo,
B7 Em Em-Em-Em
Y no te alejas de mi frenesí.

Am
Si tú me amaras como yo te adoro,
G G-G-G
Si comprendieras mi terna pasión,
G
//Serias de mi alma el más lindo tesoro,
B7 Em Em-Em-Em
Serias la reina de mi corazón.//

C
Si correspondes amorosamente,
G G-G-G
Y tu cariño sea solo de mí.
C
Te jurare por dios sinceramente,
G G-G-G
Que no amare a nadie más que a ti.

G
Lo que te digo me sale del alma,
B7 Em Em-Em-Em
Y mis promesas serán realidad.
G
//Dame tu amor mi vida dame calma,
B7 Em Em-Em-Em
Que nos espera la felicidad.//

Em - B7 - Em


SALUDOS A TODOS DESDE QUITO - ECUADOR
Julio 2011 - Luis Cubero
CUALQUIER DUDA undeseounico@gmail.com

Que viva la música ecuatoriana...........

Powered by osobebe