Rata

Hereford

Album: El verdugo de tus sueños
Genero: Pop

Tablatura (Ver letra)

1ª Guitarra

e|---------------------------------------------------------------------|
B|-2-----------------------------------------------------------------2-|
G|-2----------------O--------2pO-----------------5(7)-5-4-2----------2-|
D|-2-------2-4-------------------O-4-------2-4--------------4p2------2-|
A|-O-O-3-4-----3(4)---O-3-4----------O-3-4-----3----------------3(4)-O-|
E|---------------------------------------------------------------------|

2ª Guitarra

e|-----------------3---------------------------------------------------|
B|-2---------------3--------------3-------------------3--3--3--3--3--2-|
G|-2---------------O--------------2-------------------2--2--2--2--2--2-|
D|-2---------------O--------------O-------------------O--O--O--O--O--2-|
A|-O---------------X-------------------------------------------------O-|
E|-----------------3---------------------------------------------------|

1ª Guitarra

e|---------------------------------------------------------------------|
B|-2-------------------------------------------------------------------|
G|-2----------------O--------2pO-----------------5(7)------------------|
D|-2-------2-4-------------------O-4-------2-4-------------------------|
A|-O-O-3-4-----3(4)---O-3-4----------O-3-4-----3-----------------------|
E|---------------------------------------------------------------------|

2ª Guitarra

e|-----------------3---------------------------------------------------|
B|-2---------------3--------------3-----------------------3--3--3----2-|
G|-2---------------O--------------2-----------------------2--2--2----2-|
D|-2---------------O--------------O-----------------------O--O--O----2-|
A|-O---------------X-------------------------------------------------O-|
E|-----------------3---------------------------------------------------|

1ª Guitarra

e|---------------------------------------------------------------------|
B|-2-----------------------------------------------------------------2-|
G|-2----------------O--------2pO-----------------5(7)-5-4-2----------2-|
D|-2-------2-4-------------------O-4-------2-4--------------4p2------2-|
A|-O-O-3-4-----3(4)---O-3-4----------O-3-4-----3----------------3(4)-O-|
E|---------------------------------------------------------------------|

2ª Guitarra

e|-----------------3---------------------------------------------------|
B|-2---------------3--------------3-----------------------3--3--3----2-|
G|-2---------------O--------------2-----------------------2--2--2----2-|
D|-2---------------O--------------O-----------------------O--O--O----2-|
A|-O---------------X-------------------------------------------------O-|
E|-----------------3---------------------------------------------------|

1ª Guitarra

e|---------------------------------------------------------------------|
B|-2-----------------------------------------------------------------2-|
G|-2----------------O--------2pO-----------------5(7)-5-4-2----------2-|
D|-2-------2-4-------------------O-4-------2-4--------------4p2------2-|
A|-O-O-3-4-----3(4)---O-3-4----------O-3-4-----3----------------3(4)-O-|
E|---------------------------------------------------------------------|

2ª Guitarra

e|-----------------3---------------------------------------------------|
B|-2---------------3--------------3-----------------------3--3--3----2-|
G|-2---------------O--------------2-----------------------2--2--2----2-|
D|-2---------------O--------------O-----------------------O--O--O----2-|
A|-O---------------X-------------------------------------------------O-|
E|-----------------3---------------------------------------------------|

Se muy bien y vos también que es todo lo que quiero de vos

e|------------------3-3-------------------------------2--2--2--2--3--2-|
B|-2-2--------------3-3-------------3-3---------------3--3--3--3--3--3-|
G|-2-2--------------O-O-------------2-2---------------2--2--2--2--2--2-|
D|-2-2--------------O-O-------------O-O---------------O--O--O--O--O--O-|
A|-O-O--------------X-X------------------------------------------------|
E|------------------3-3------------------------------------------------|

Perversión, sexo, después adiós.

e|------------------3-3-------------------------------2--2--2--2--3--2-|
B|-2-2--------------3-3-------------3-3---------------3--3--3--3--3--3-|
G|-2-2--------------O-O-------------2-2---------------2--2--2--2--2--2-|
D|-2-2--------------O-O-------------O-O---------------O--O--O--O--O--O-|
A|-O-O--------------X-X------------------------------------------------|
E|------------------3-3------------------------------------------------|

Estoy con vos, ya me aburrí, me impaciento en muy poco tiempo

e|------------------3-3-------------------------------2--2--2--2--3--2-|
B|-2-2--------------3-3-------------3-3---------------3--3--3--3--3--3-|
G|-2-2--------------O-O-------------2-2---------------2--2--2--2--2--2-|
D|-2-2--------------O-O-------------O-O---------------O--O--O--O--O--O-|
A|-O-O--------------X-X------------------------------------------------|
E|------------------3-3------------------------------------------------|

aunque todas mis noches terminen igual.

e|------------------3-3-------------------------------2--2--2--2--3--2-|
B|-2-2--------------3-3-------------3-3---------------3--3--3--3--3--3-|
G|-2-2--------------O-O-------------2-2---------------2--2--2--2--2--2-|
D|-2-2--------------O-O-------------O-O---------------O--O--O--O--O--O-|
A|-O-O--------------X-X------------------------------------------------|
E|------------------3-3------------------------------------------------|

Y cuando cae el sol, es cuando estoy mejor

e|-------------O-----------------------O-------------------------------|
B|-------------O-----------------------O-------------------------------|
G|-------------1-------2--------2------1-------2--------2--------------|
D|-------------2--O--4-------2---------2--O--4-------2-----------------|
A|-------------2----------4------O-----2----------4--------O-----------|
E|----------O-----------------------O----------------------------------|

y me sobra el tiempo para sonreír y me sobra el tiempo para seguir.

e|---------------------------------------------------------------------|
B|---------------------------------------------------------------------|
G|--------------4-----2-----2-----2-----7-----5-----7------7-----------|
D|------------4-----2-----2-----2-----7-----5-----7------7-------------|
A|----------2-----O-----------------5-----7-----8------9---------------|
E|----------------------4-----2----------------------------------------|

Dámelo, por favor, algo que me ayude a brillar,

e|------------------3-3-------------------------------2--2--2--2--3--2-|
B|-2-2--------------3-3-------------3-3---------------3--3--3--3--3--3-|
G|-2-2--------------O-O-------------2-2---------------2--2--2--2--2--2-|
D|-2-2--------------O-O-------------O-O---------------O--O--O--O--O--O-|
A|-O-O--------------X-X------------------------------------------------|
E|------------------3-3------------------------------------------------|

reflejo de esta sonrisa diabólica.

e|------------------3-3-------------------------------2--2--2--2--3--2-|
B|-2-2--------------3-3-------------3-3---------------3--3--3--3--3--3-|
G|-2-2--------------O-O-------------2-2---------------2--2--2--2--2--2-|
D|-2-2--------------O-O-------------O-O---------------O--O--O--O--O--O-|
A|-O-O--------------X-X------------------------------------------------|
E|------------------3-3------------------------------------------------|

Lo que venga ya solo por placer, lo que quiero o lo que necesito,

e|------------------3-3-------------------------------2--2--2--2--3--2-|
B|-2-2--------------3-3-------------3-3---------------3--3--3--3--3--3-|
G|-2-2--------------O-O-------------2-2---------------2--2--2--2--2--2-|
D|-2-2--------------O-O-------------O-O---------------O--O--O--O--O--O-|
A|-O-O--------------X-X------------------------------------------------|
E|------------------3-3------------------------------------------------|

todo lo que sea ahora que venga ya.

e|------------------3-3-------------------------------2--2--2--2--3--2-|
B|-2-2--------------3-3-------------3-3---------------3--3--3--3--3--3-|
G|-2-2--------------O-O-------------2-2---------------2--2--2--2--2--2-|
D|-2-2--------------O-O-------------O-O---------------O--O--O--O--O--O-|
A|-O-O--------------X-X------------------------------------------------|
E|------------------3-3------------------------------------------------|

Y la fascinación de la noche es mejor,

e|-------------O-----------------------O-------------------------------|
B|-------------O-----------------------O-------------------------------|
G|-------------1-------2--------2------1-------2--------2--------------|
D|-------------2--O--4-------2---------2--O--4-------2-----------------|
A|-------------2----------4------O-----2----------4--------O-----------|
E|----------O-----------------------O----------------------------------|

y me alcanza el tiempo para sonreír y me alcanza el tiempo para vivir.

e|---------------------------------------------------------------------|
B|---------------------------------------------------------------------|
G|--------------4-----2-----2-----2-----7-----5-----7------7-----------|
D|------------4-----2-----2-----2-----7-----5-----7------7-------------|
A|----------2-----O-----------------5-----7-----8------9---------------|
E|----------------------4-----2----------------------------------------|

Pero no, quiero todo todo todo para mi

1ª Guitarra

e|---------------------------------------------------------------------|
B|-2-----------------------------------------------------------------2-|
G|-2----------------O--------2pO-----------------5(7)-5-4-2----------2-|
D|-2-------2-4-------------------O-4-------2-4--------------4p2------2-|
A|-O-O-3-4-----3(4)---O-3-4----------O-3-4-----3----------------3(4)-O-|
E|---------------------------------------------------------------------|

2ª Guitarra

e|---------------------------------------------------------------------|
B|-2-----------------------------3-------------------3-----------------|
G|-2-----------------------------2-------------------2-----------------|
D|-2-----------------------------4-------------------O-----------------|
A|-O-------------------------------------------------------------------|
E|---------------------------------------------------------------------|

Pero no, quiero todo todo todo para mi

1ª Guitarra

e|---------------------------------------------------------------------|
B|-2-----------------------------------------------------------------2-|
G|-2----------------O--------2pO-----------------5(7)-5-4-2----------2-|
D|-2-------2-4-------------------O-4-------2-4--------------4p2------2-|
A|-O-O-3-4-----3(4)---O-3-4----------O-3-4-----3----------------3(4)-O-|
E|---------------------------------------------------------------------|

2ª Guitarra

e|---------------------------------------------------------------------|
B|-2-----------------------------3-------------------3-----------------|
G|-2-----------------------------2-------------------2-----------------|
D|-2-----------------------------4-------------------O-----------------|
A|-O-------------------------------------------------------------------|
E|---------------------------------------------------------------------|

Pero no, para mi

1ª Guitarra

e|---------------------------------------------------------------------|
B|-2-----------------------------------------------------------------2-|
G|-2----------------O--------2pO-----------------5(7)-5-4-2----------2-|
D|-2-------2-4-------------------O-4-------2-4--------------4p2------2-|
A|-O-O-3-4-----3(4)---O-3-4----------O-3-4-----3----------------3(4)-O-|
E|---------------------------------------------------------------------|

2ª Guitarra

e|---------------------------------------------------------------------|
B|-2-----------------------------3-------------------3-----------------|
G|-2-----------------------------2-------------------2-----------------|
D|-2-----------------------------4-------------------O-----------------|
A|-O-------------------------------------------------------------------|
E|---------------------------------------------------------------------|

Sin pasión, sin dolor, sin gloria ni con pena se vive

e|------------------3-3-------------------------------2--2--2--2--3--2-|
B|-2-2--------------3-3-------------3-3---------------3--3--3--3--3--3-|
G|-2-2--------------O-O-------------2-2---------------2--2--2--2--2--2-|
D|-2-2--------------O-O-------------O-O---------------O--O--O--O--O--O-|
A|-O-O--------------X-X------------------------------------------------|
E|------------------3-3------------------------------------------------|

Sin amor, pareciera que es todo mejor

e|------------------3-3-------------------------------2--2--2--2--3--2-|
B|-2-2--------------3-3-------------3-3---------------3--3--3--3--3--3-|
G|-2-2--------------O-O-------------2-2---------------2--2--2--2--2--2-|
D|-2-2--------------O-O-------------O-O---------------O--O--O--O--O--O-|
A|-O-O--------------X-X------------------------------------------------|
E|------------------3-3------------------------------------------------|

No me aguanto en paz aunque quiero mas, pero el dinero y la noche se acaban

e|------------------3-3-------------------------------2--2--2--2--3--2-|
B|-2-2----2---------3-3-------------3-3---------------3--3--3--3--3--3-|
G|-2-2----2---------O-O-------------2-2---------------2--2--2--2--2--2-|
D|-2-2----2---------O-O-------------O-O---------------O--O--O--O--O--O-|
A|-O-O----O---------X-X------------------------------------------------|
E|------------------3-3------------------------------------------------|

Sera hasta mañana, para mañana volver a empezar

e|------------------3-3-------------------------------2--2--2--2--3--2-|
B|-2-2--------------3-3-------------3-3---------------3--3--3--3--3--3-|
G|-2-2--------------O-O-------------2-2---------------2--2--2--2--2--2-|
D|-2-2--------------O-O-------------O-O---------------O--O--O--O--O--O-|
A|-O-O--------------X-X------------------------------------------------|
E|------------------3-3------------------------------------------------|

Y ya salió el sol, es cuando yo me voy

e|-------------O-----------------------O-------------------------------|
B|-------------O-----------------------O-------------------------------|
G|-------------1-------2--------2------1-------2--------2--------------|
D|-------------2--O--4-------2---------2--O--4-------2-----------------|
A|-------------2----------4------O-----2----------4--------O-----------|
E|----------O-----------------------O----------------------------------|


y se acaba el tiempo para sonreír y se acaba el tiempo para vivir.

e|---------------------------------------------------------------------|
B|---------------------------------------------------------------------|
G|--------------4-----2-----2-----2-----7-----5-----7------7-----------|
D|------------4-----2-----2-----2-----7-----5-----7------7-------------|
A|----------2-----O-----------------5-----7-----8------9---------------|
E|----------------------4-----2----------------------------------------|

Pero no, quiero todo todo todo para mi

1ª Guitarra

e|---------------------------------------------------------------------|
B|-2-----------------------------------------------------------------2-|
G|-2----------------O--------2pO-----------------5(7)-5-4-2----------2-|
D|-2-------2-4-------------------O-4-------2-4--------------4p2------2-|
A|-O-O-3-4-----3(4)---O-3-4----------O-3-4-----3----------------3(4)-O-|
E|---------------------------------------------------------------------|

2ª Guitarra

e|---------------------------------------------------------------------|
B|-2-----------------------------3-------------------3-----------------|
G|-2-----------------------------2-------------------2-----------------|
D|-2-----------------------------4-------------------O-----------------|
A|-O-------------------------------------------------------------------|
E|---------------------------------------------------------------------|

Pero no, quiero todo todo todo para mi

1ª Guitarra

e|---------------------------------------------------------------------|
B|-2-----------------------------------------------------------------2-|
G|-2----------------O--------2pO-----------------5(7)-5-4-2----------2-|
D|-2-------2-4-------------------O-4-------2-4--------------4p2------2-|
A|-O-O-3-4-----3(4)---O-3-4----------O-3-4-----3----------------3(4)-O-|
E|---------------------------------------------------------------------|

2ª Guitarra

e|---------------------------------------------------------------------|
B|-2-----------------------------3-------------------3-----------------|
G|-2-----------------------------2-------------------2-----------------|
D|-2-----------------------------4-------------------O-----------------|
A|-O-------------------------------------------------------------------|
E|---------------------------------------------------------------------|

Pero no, para mi

1ª Guitarra

e|---------------------------------------------------------------------|
B|-2-----------------------------------------------------------------2-|
G|-2----------------O--------2pO-----------------5(7)-5-4-2----------2-|
D|-2-------2-4-------------------O-4-------2-4--------------4p2------2-|
A|-O-O-3-4-----3(4)---O-3-4----------O-3-4-----3----------------3(4)-O-|
E|---------------------------------------------------------------------|

2ª Guitarra

e|---------------------------------------------------------------------|
B|-2-----------------------------3-------------------3-----------------|
G|-2-----------------------------2-------------------2-----------------|
D|-2-----------------------------4-------------------O-----------------|
A|-O-------------------------------------------------------------------|
E|---------------------------------------------------------------------|

Solo

e|---------------------------------------------------------------------|
B|--8------------------------------------------------------------------|
G|----5h6----------5---------------------------------------------------|
D|--------7--7p5-----7--5--4h5p4/2--4---5--4h5p4/2----------------2----|
A|---------------7--------------------5------------5--4--O--3--4-------|
E|---------------------------------------------------------------------|

e|---------------------------------------5---------1O--------1O--------|
B|-------3-----------------------5---7------11(12)----12(14)----12(14)-|
G|--3h4----5(6)--4--2-----2--5h6---6---7----11(12)---------------------|
D|---------------------4-----------------------------------------------|
A|---------------------------------------------------------------------|
E|---------------------------------------------------------------------|

e|-----------------------------------------------------------------12--|
B|--1O----13--1O--8/1O/8----8---1O---8---1O--7(8)7~~~~~~----15(17)-----|
G|-----11---------9/11/9--9---9----9---9-----7(8)7~~~~~~---------------|
D|---------------------------------------------------------------------|
A|---------------------------------------------------------------------|
E|--------------------------------------------------------O------------|

e|--------------12-----------------------------------------------------|
B|-15p12---------------------------------------------------------------|
G|-------14(16)----14p12----14----12--------12-------14p12----14-12----|
D|-----------------------14----14----14--14----14-14-------14-------14-|
A|---------------------------------------------------------------------|
E|---------------------------------------------------------------------|

e|-------------------------------------7-------------------------------|
B|----------------------------------------7--1Op7----------------------|
G|-------------------9--7h8---7-9(11)--------------9(11)9p7----9--7----|
D|-------7--9p7-------------9--------------------------------9------9--|
A|--7/9---------9--9---------------------------------------------------|
E|---------------------------------------------------------------------|

e|---------------------------------------------------------------------|
B|------1O-13p1O---1O-13p1O-----1O--13p1O------1O--13p1O-----1O--13p1O-|
G|-9/11----------11---------11-------------11-------------11-----------|
D|---------------------------------------------------------------------|
A|---------------------------------------------------------------------|
E|---------------------------------------------------------------------|

e|---------------------------------------------------------------------|
B|----1O-13p1O----1O-13p1O----1O-13p1O----1O-13p1O----1O-13p1O----1O---|
G|-11----------11----------11----------11----------11----------11------|
D|---------------------------------------------------------------------|
A|---------------------------------------------------------------------|
E|---------------------------------------------------------------------|

e|---------------------------------------------------------------------|
B|-13p1O----1O-13p1O----1O-14p1O----1O-14p1O----1O-14p1O----1O-14p1O---|
G|-------11----------12----------12----------12----------12------------|
D|---------------------------------------------------------------------|
A|---------------------------------------------------------------------|
E|---------------------------------------------------------------------|

e|---------------------------------------------------------------------|
B|----1O-14p1O----1O-14p1O----1O-14p1O----1O-14p1O----1O-13p1O----1O---|
G|-12----------12----------12----------12----------11----------11------|
D|---------------------------------------------------------------------|
A|---------------------------------------------------------------------|
E|---------------------------------------------------------------------|

e|---------------------------------------------------------------------|
B|-13p1O----1O-13p1O----1O-13p1O----1O-13p1O----1O-13p1O----1O-1Op13---|
G|-------11----------11----------11----------11----------11------------|
D|---------------------------------------------------------------------|
A|---------------------------------------------------------------------|
E|---------------------------------------------------------------------|

e|---------------------------------------------------------------------|
B|----1O-13p1O----1O-14p1O----1O-14p1O----1O-14p1O----1O-14p1O----1O---|
G|-11----------12----------12----------12----------12----------12------|
D|---------------------------------------------------------------------|
A|---------------------------------------------------------------------|
E|---------------------------------------------------------------------|

e|---------------------------------------------------------------------|
B|-14p1O----1O-14p1O----1O-14p1O----1O-14p1O----1O-13p1O----1O-13p1O---|
G|-------12----------12----------12----------11----------11----------11|
D|---------------------------------------------------------------------|
A|---------------------------------------------------------------------|
E|---------------------------------------------------------------------|

e|---------------------------------------------------------------------|
B|-1O-13p1O----1O-13p1O----1O-13p1O----1O-13p1O----1O-13p1O----1O-13p1O|
G|----------11----------11----------11----------11----------11---------|
D|---------------------------------------------------------------------|
A|---------------------------------------------------------------------|
E|---------------------------------------------------------------------|

e|-O-O-17pO-O-O-15pO-O-O-14pO-O-O-12pO-O-O-1OpO-O-O-9pO-O-O-7pO-O-O-5pO|
B|---------------------------------------------------------------------|
G|---------------------------------------------------------------------|
D|---------------------------------------------------------------------|
A|---------------------------------------------------------------------|
E|---------------------------------------------------------------------|

e|-O-O-7-5-7-5-7-7(8)7p5-7---5--8-----5-------5--5---------5-----------|
B|-------------------------7----7(8)-----8p5--------8(1O)----8p5-8p5---|
G|-------------------------------------------------------------------7-|
D|---------------------------------------------------------------------|
A|---------------------------------------------------------------------|
E|---------------------------------------------------------------------|

e|---------------------------------------------------------------------|
B|-5--8p5--8p5---5--8p5--8p5---5--8p5--8p5---5--8p5--8p5---5-8p5-8p5---|
G|-------------7-------------7-------------7-------------7-------------|
D|---------------------------------------------------------------------|
A|---------------------------------------------------------------------|
E|---------------------------------------------------------------------|

Pero no, quiero todo todo todo para mi

2ª Guitarra

e|---------------------------------------------------------------------|
B|-----------------2----------------3----------------3-----------------|
G|-----------------2----------------2----------------2-----------------|
D|-----------------2----------------4----------------O-----------------|
A|-----------------O----------------O----------------------------------|
E|---------------------------------------------------------------------|

Pero no, quiero todo todo todo para mi

2ª Guitarra

e|---------------------------------------------------------------------|
B|-----------------2----------------3----------------3-----------------|
G|-----------------2----------------2----------------2-----------------|
D|-----------------2----------------4----------------O-----------------|
A|-----------------O----------------O----------------------------------|
E|---------------------------------------------------------------------|

Pero no, pero no, pero no, pero no, quiero todo, todo, todo para mi

e|---------------------------------------------------------------------|
B|-----------------2----------------3----------------3-----------------|
G|-----------------2----------------2----------------2-----------------|
D|-----------------2----------------4----------------O-----------------|
A|-----------------O----------------O----------------------------------|
E|---------------------------------------------------------------------|

Pero no, para mi

1ª Guitarra

e|------12--12--12----12--12--12----12--12--12----12--12---15(17)------|
B|------13--13--13----13--13--13----13--13--13----13--13---------------|
G|-----------------14------------14------------14----------------------|
D|---------------------------------------------------------------------|
A|---------------------------------------------------------------------|
E|---------------------------------------------------------------------|

2ª Guitarra

e|---------------------------------------------------------------------|
B|-----------------2----------------3----------------3-----------------|
G|-----------------2----------------2----------------2-----------------|
D|-----------------2----------------4----------------O-----------------|
A|-----------------O----------------O----------------------------------|
E|---------------------------------------------------------------------|

Fade out:

e|-------------O-----------------------O-------------------------------|
B|-------------O-----------------------O-------------------------------|
G|-------------1-------2--------2------1-------2--------2--------------|
D|-------------2--O--4-------2---------2--O--4-------2-----------------|
A|-------------2----------4------O-----2----------4--------O-----------|
E|----------O-----------------------O----------------------------------|

e|----O-------------------O-----------------------------------------O--|
B|----O-------------------O-----------------------------------------O--|
G|----1------2------2-----1------2-----2-----2-----2-----2-----2----2--|
D|----2--O-4------2-------2--O-4-----2---O-4-----2---O-4-----2------2--|
A|----2---------4-----O---2--------4-----------4-----------4--------1--|
E|--O-------------------O-------------------------------------------O--|