No Creo Que Vos Me Creas

Hereford

Album: La corona del rey
Genero: Pop

Tablatura (Ver letra)

Cualquier duda manden mails

e|-----------------------------------------------------------------|
B|-----------------------------------------------------------------|
G|---3/4--4--3/4--4/5--4/5--8/9-8/9--9/1O-9/1O--1O/12--------------|
D|-----------------------------------------------------------------|
A|---1/2--2--1/2--2/4--2/4--6/7-6/7--7/9--7/9---9/11---------------|
E|-----------------------------------------------------------------|

e|--O------O--------O---------------O------------------------------|
B|--3---------3--------3------------O------------------------------|
G|--2---2--------2----------3/4------------------------------------|
D|--4--------------------------------------------------------------|
A|--------------------------1/2------------------------------------|
E|-----------------------------------------------------------------|

Puede ser que haya guardado para después

e|-----------------------------------------------------------------|
B|-----------------------------------------------------------------|
G|---3/4--4--3/4--4/5--4/5--8/9------------------------------------|
D|-----------------------------------------------------------------|
A|---1/2--2--1/2--2/4--2/4--6/7------------------------------------|
E|-----------------------------------------------------------------|

Si hay algo tuyo que no pedí

e|-----------------------------------------------------------------|
B|-----------------------------------------------------------------|
G|----8/9--9/1O-9/1O--1O/12----------------------------------------|
D|-----------------------------------------------------------------|
A|----6/7--7/9--7/9---9/11-----------------------------------------|
E|-----------------------------------------------------------------|

Quizas es porque no lo necesito

e|--O------O--------O----------------------------------------------|
B|--3---------3--------3-------------------------------------------|
G|--2---2--------2----------3/4------------------------------------|
D|--4--------------------------------------------------------------|
A|--------------------------1/2------------------------------------|
E|-----------------------------------------------------------------|

Puede ser que no descubras lo que ocurrió

e|-----------------------------------------------------------------|
B|-----------------------------------------------------------------|
G|---3/4--4--3/4--4/5--4/5--8/9------------------------------------|
D|-----------------------------------------------------------------|
A|---1/2--2--1/2--2/4--2/4--6/7------------------------------------|
E|-----------------------------------------------------------------|

Que no te cuente lo que pasó

e|-----------------------------------------------------------------|
B|-----------------------------------------------------------------|
G|----8/9--9/1O-9/1O--1O/12----------------------------------------|
D|-----------------------------------------------------------------|
A|----6/7--7/9--7/9---9/11-----------------------------------------|
E|-----------------------------------------------------------------|

Igual no creo que vos me creas

e|--O------O--------O---------------O------------------------------|
B|--3---------3--------3------------O------------------------------|
G|--2---2--------2----------3/4------------------------------------|
D|--4--------------------------------------------------------------|
A|--------------------------1/2------------------------------------|
E|-----------------------------------------------------------------|

Pero igual no creo que vos me creas más



Sin despreciarme

e|-----------------------------------------------------------------|
B|-----------------------------------------------------------------|
G|----------8---9-8---11-8---9-8(9)8----8---9-8---11-8---9---------|
D|-------/9---9-----9------9---------/9---9-----9------9-----------|
A|-----------------------------------------------------------------|
E|-----------------------------------------------------------------|

Al final no quedan balas para matar

e|-----------------------------------------------------------------|
B|-----------------------------------------------------------------|
G|---3/4--4--3/4--4/5--4/5--8/9------------------------------------|
D|-----------------------------------------------------------------|
A|---1/2--2--1/2--2/4--2/4--6/7------------------------------------|
E|-----------------------------------------------------------------|

No quedan piedras para tirar

e|-----------------------------------------------------------------|
B|-----------------------------------------------------------------|
G|----8/9--9/1O-9/1O--1O/12----------------------------------------|
D|-----------------------------------------------------------------|
A|----6/7--7/9--7/9---9/11-----------------------------------------|
E|-----------------------------------------------------------------|

Igual no creo que vos me creas

e|--O------O--------O---------------O------------------------------|
B|--3---------3--------3------------O------------------------------|
G|--2---2--------2----------3/4------------------------------------|
D|--4--------------------------------------------------------------|
A|--------------------------1/2------------------------------------|
E|-----------------------------------------------------------------|

Aunque ya no tengas tiempo para rezar

e|-----------------------------------------------------------------|
B|-----------------------------------------------------------------|
G|---6/7--6/7--7/9--7/9--11/13-------------------------------------|
D|-----------------------------------------------------------------|
A|---4/5--4/5--5/7--5/7---9/11-------------------------------------|
E|-----------------------------------------------------------------|

No tengas en quien confiar

e|-----------------------------------------------------------------|
B|-----------------------------------------------------------------|
G|---11/13--13/14--13/14--14/16------------------------------------|
D|-----------------------------------------------------------------|
A|----9/11--11/12--11/12--12/14------------------------------------|
E|-----------------------------------------------------------------|

Igual no creo que vos me creas

e|--O------O--------O---------------O------------------------------|
B|--3---------3--------3------------O------------------------------|
G|--2---2--------2----------3/4------------------------------------|
D|--4--------------------------------------------------------------|
A|--------------------------1/2------------------------------------|
E|-----------------------------------------------------------------|

Pero igual no creo que vos me creas más


Sin despreciarme

e|-----------------------------------------------------------------|
B|-----------------------------------------------------------------|
G|----------8---9-8---11-8---9-8(9)8----8---9-8---11-8---9---------|
D|-------/9---9-----9------9---------/9---9-----9------9-----------|
A|-----------------------------------------------------------------|
E|-----------------------------------------------------------------|

SOLO

e|------------------------------7----7----7--7------7-------9------|
B|------------------------7-----7h9--7h9--7--7(8)--1O(12)--12(14)--|
G|----------------4--6/8-----8-------------------------------------|
D|----------4--6---------------------------------------------------|
A|--2--4/6---------------------------------------------------------|
E|-----------------------------------------------------------------|

e|--1O------11------12---------------------------------------------|
B|--13(15)--14(16)--15(17)-----------------------------------------|
G|-----------------------------------------------------------------|
D|-----------------------------------------------------------------|
A|-----------------------------------------------------------------|
E|---------------------------O-------------------------------------|



e|-------------------O---------------------------------------------|
B|-------------------O---------------------------------------------|
G|----4---------2----3---------------------------------------------|
D|----4----6----2----4---------------------------------------------|
A|----2----6----O----4---------------------------------------------|
E|---------4---------2---------------------------------------------|

Pero igual no creo que vos me creas más


Sin despreciarme

e|-----------------------------------------------------------------|
B|-----------------------------------------------------------------|
G|----8---9-8---11-8---9-8(9)8----8---9-8---11-8---9-8(9)8---------|
D|-/9---9-----9------9---------/9---9-----9------9-----------------|
A|-----------------------------------------------------------------|
E|-----------------------------------------------------------------|

Más

e|-----------------------------------------------------------------|
B|-----------------------------------------------------------------|
G|----------8---9-8---11-8---9-8-----------------------------------|
D|-------/9---9-----9------9---------------------------------------|
A|-----------------------------------------------------------------|
E|-----------------------------------------------------------------|

e|-------------------O---------------------------------------------|
B|-------------------O---------------------------------------------|
G|----4---------2----3---------------------------------------------|
D|----4----6----2----4---------------------------------------------|
A|----2----6----O----4---------------------------------------------|
E|---------4---------2---------------------------------------------|

e|-----------------------------------------------------------------|
B|-----------------------------------------------------------------|
G|--6/7--7--6/7--7/9--7/6--6/7--7----------------------------------|
D|-----------------------------------------------------------------|
A|--4/5--5--4/5--5/7--5/4--4/5--5----------------------------------|
E|-----------------------------------------------------------------|

e|-----------------------------------------------------------------|
B|-----------------------------------------------------------------|
G|------6/7--7/9--7/6--6/7--6/7--7---------------------------------|
D|-----------------------------------------------------------------|
A|------4/5--5/7--5/4--4/5--4/5--5---------------------------------|
E|-----------------------------------------------------------------|

e|-----------------------------------------------------------------|
B|-----------------------------------------------------------------|
G|------6/7--7/9--7/6--6/7--6/7--7---------------------------------|
D|-----------------------------------------------------------------|
A|------4/5--5/7--5/4--4/5--4/5--5---------------------------------|
E|-----------------------------------------------------------------|

e|----------------------O---2---O---2---O---O---O------------------|
B|----------------------O---O---3---O---3---3---3------------------|
G|------6/7--7/9--7/6---1---1---1---1---1---1---1------------------|
D|----------------------2---2---2---2---2---2---2------------------|
A|------4/5--5/7--5/4---2---2---2---2---2---2---2------------------|
E|----------------------O---O---O---O---O---O---O------------------|