Limite Perpetuo

Hereford

Genero: Pop

Tablatura

Intro:
e--------------------------------------------------
b-----------------------------------------------0--
g--/4-5-4-4h5-5---/9-7-5-4-2--4-5-4/7-5-4-2-1-2---2
d-------------------------------------------------- X2
a--------------------------------------------------
E--------------------------------------------------

(A)
Am Em C
Guardan tu dolor,
D Am
guardan la ilucion
Em C D
queman como el fuego

(A)
Arden como el sol,
profundos como el mar
son tu sentimientos

(A)
Saben demostrar,
que dicen la verdad
Soplan como el viento

(A)
Grandes como dios,
tan simples como vos
son tus sentimientos

(B)
Am
Y miran para atras
C Em Am
Y parecen tener razones para no morir
C Em
Y no quieren desprenderse de tu pecho
Am C Em Am
Y que tiene razon cuando me hiciste en salir
C Em
Este limite perpetuo perpetuo

e--------------------------------------------------
b-----------------------------------------------0--
g--/4-5-4-4h5-5---/9-7-5-4-2--4-5-4/7-5-4-2-1-2---2
d-------------------------------------------------- X2
a--------------------------------------------------
E--------------------------------------------------

(A)
Una decisión,
difícil de cambiar
pesa como el tiempo.

(A)
Como un huracán,
te llevan y te traen
son tus sentimientos.

(A)
Saben demostrar
que dicen la verdad
Soplan como el viento

(A)
Grandes como dios
tan simples como vos
son tus sentimientos

(B)
Y parecen tener razones para no morir
Y no quieren desprenderse de tu pecho
Y que tiene razon cuando me hiciste en salir
Este limite perpetuo perpetuo
Y parecen tener razones para no morir
Y no quieren desprenderse de tu pecho


e--------------------------------------------------
b-----------------------------------------------0--
g--/4-5-4-4h5-5---/9-7-5-4-2--4-5-4/7-5-4-2-1-2---2
d-------------------------------------------------- X2
a--------------------------------------------------
E--------------------------------------------------


Bueno estoy casi seguro que es asi, al menos a mi me
suena bastante parecido.
Daniela O., saque este tema por vos, te lo dedico, TQM
Salu2 y aguante Hereford