Cierto

Hereford

Album: De cerca
Genero: Pop

Tablatura (Ver letra)

Intro:

2ª guitarra

E|-------------------------------------------|x6
B|-------------------------------------------|
G|---------7-7-7---9-9-9-----------7-7-------|
D|-2-2-2---7-7-7---9-9-9---7-7-7---7-7---7---|
A|-2-2-2---5-5-5---7-7-7---7-7-7---5-5---7---|
E|-0-0-0-------------------5-5-5---------5---|

1ª guitarra

E|-0-0-12-0-7-10-0-------0----10-0-0-1210-|
B|-----------------10-14---12--------------|
G|-----------------------------------------|
D|-----------------------------------------|
A|-----------------------------------------|
E|-----------------------------------------|

E|-0-0-12-0-7-10-0-------0----10------------|x2
B|-----------------10-14---12--------10-12--|
G|---------------------------------9--------|
D|------------------------------------------|
A|------------------------------------------|
E|------------------------------------------|



CUIDATE DE MI, SOY EL ESPEJO QUE TE MIRA
ANESTECIO TU DOLOR , PERO NO CURO LAS HERIDAS


2ª guitarra:

E|-------------------------------------------|x4
B|-------------------------------------------|
G|---------7-7-7---9-9-9-----------7-7-------|
D|-2-2-2---7-7-7---9-9-9---7-7-7---7-7---7---|
A|-2-2-2---5-5-5---7-7-7---7-7-7---5-5---7---|
E|-0-0-0-------------------5-5-5---------5---|



Y TE AYUDE ESCONDIENDO TODO
LO QUE A VOS TE AVERGONZABA
HUBIERA PREFERIDO REFLEJARTE LA CONCIENCIA

2ª guitarra:

E|-----------------------------------|
B|-----------------------------------|
G|------------------7-7-7-7-7-7-7-7--|
D|-7-7-7-7-7-7-7-7--7-7-7-7-7-7-7-7--|
A|-7-7-7-7-7-7-7-7--5-5-5-5-5-5-5-5--|
E|-5-5-5-5-5-5-5-5-------------------|

E|-----------------------------------|
B|-----------------------------------|
G|------------------7-7-7-7-7-7-7-7--|
D|-9-9-9-9-9-9-9-9--7-7-7-7-7-7-7-7--|
A|-9-9-9-9-9-9-9-9--5-5-5-5-5-5-5-5--|
E|-7-7-7-7-7-7-7-7-------------------|

1ª guitarra:
A D
E|-------5--------------5-----------------5--------------5-------|
B|----------5--------------5-----------------7--------------7----|
G|----6--------6-----6--------6--------7--------7-----7----------|
D|-7--------------7-----------------7--------------7-------------|
A|---------------------------------------------------------------|
E|---------------------------------------------------------------|
B D
E|-------7--------------7-------------5--------------5-----------|
B|----------7--------------7-------------7--------------7--------|
G|----8--------8-----8-------------7--------7-----7--------------|
D|-9--------------9-------------7--------------7-----------------|
A|---------------------------------------------------------------|
E|---------------------------------------------------------------|


Después de eso retoma con el punteo:

2ª guitarra:

E|-------------------------------------------|x4
B|-------------------------------------------|
G|---------7-7-7---9-9-9-----------7-7-------|
D|-2-2-2---7-7-7---9-9-9---7-7-7---7-7---7---|
A|-2-2-2---5-5-5---7-7-7---7-7-7---5-5---7---|
E|-0-0-0-------------------5-5-5---------5---|

1ª guitarra:

E|-0-0-12-0-7-10-0-------0----10-0-0-1210--|
B|-----------------10-14---12---------------|
G|------------------------------------------|
D|------------------------------------------|
A|------------------------------------------|
E|------------------------------------------|

E|-0-0-12-0-7-10-0-------0----10------------|x2
B|-----------------10-14---12--------10-12--|
G|---------------------------------9--------|
D|------------------------------------------|
A|------------------------------------------|
E|------------------------------------------|



CUIDATE DE MI, SOY LA PALABRA DE TU BOCA
SI ME USAS PUEDE SER, QUE VUELVA A VOS COMO UNA ROCA

2ª guitarra:

E|-------------------------------------------|x4
B|-------------------------------------------|
G|---------7-7-7---9-9-9-----------7-7-------|
D|-2-2-2---7-7-7---9-9-9---7-7-7---7-7---7---|
A|-2-2-2---5-5-5---7-7-7---7-7-7---5-5---7---|
E|-0-0-0-------------------5-5-5---------5---|


Y TU COSTUMBRE ES LA DE HABLAR
EL DOBLE DE LO QUE ESCUCHAS
QUE BUENO FUE TRAGARME ANTES DE DARTE MAS PROBLEMAS

2ª guitarra:

E|-----------------------------------|
B|-----------------------------------|
G|------------------7-7-7-7-7-7-7-7--|
D|-7-7-7-7-7-7-7-7--7-7-7-7-7-7-7-7--|
A|-7-7-7-7-7-7-7-7--5-5-5-5-5-5-5-5--|
E|-5-5-5-5-5-5-5-5-------------------|

E|-----------------------------------|
B|-----------------------------------|
G|------------------7-7-7-7-7-7-7-7--|
D|-9-9-9-9-9-9-9-9--7-7-7-7-7-7-7-7--|
A|-9-9-9-9-9-9-9-9--5-5-5-5-5-5-5-5--|
E|-7-7-7-7-7-7-7-7-------------------|



1ª guitarra:
A D
E|-------5--------------5-----------------5--------------5-------|
B|----------5--------------5-----------------7--------------7----|
G|----6--------6-----6--------6--------7--------7-----7----------|
D|-7--------------7-----------------7--------------7-------------|
A|---------------------------------------------------------------|
E|---------------------------------------------------------------|
B D
E|-------7--------------7-------------5--------------5-----------|
B|----------7--------------7-------------7--------------7--------|
G|----8--------8-----8-------------7--------7-----7--------------|
D|-9--------------9-------------7--------------7-----------------|
A|---------------------------------------------------------------|
E|---------------------------------------------------------------|


CIERTO, LAMENTABLE PERO CIERTO
TE PASAS LA VIDA RELLENANDO AGUJEROS Y ESO ES CIERTO

1ª y 2ª guitarra:

E|----------------------|x3
B|----------------------|
G|-----9--9------7------|
D|-2---9--9---7--7--7---|
A|-2---7--7---7--5--7---|
E|-0----------5-----5---|

Después hace una sola vez el punteo:

2ª guitarra

E|-------------------------------------------|x2
B|-------------------------------------------|
G|---------7-7-7---9-9-9-----------7-7-------|
D|-2-2-2---7-7-7---9-9-9---7-7-7---7-7---7---|
A|-2-2-2---5-5-5---7-7-7---7-7-7---5-5---7---|
E|-0-0-0-------------------5-5-5---------5---|

1ª guitarra

E|-0-0-12-0-7-10-0-------0----10-0-0-1210-|
B|-----------------10-14---12--------------|
G|-----------------------------------------|
D|-----------------------------------------|
A|-----------------------------------------|
E|-----------------------------------------|

E|-0-0-12-0-7-10-0-------0----10------------|x2
B|-----------------10-14---12--------10-12--|
G|---------------------------------9--------|
D|------------------------------------------|
A|------------------------------------------|
E|------------------------------------------|

CUIDATE DE MI, SOY EL DINERO QUE PRECISAS
SI ME VOY TE PONGO MAL, Y SI ME QUEDO TE MAREO

2ª guitarra:

E|-------------------------------------------|x4
B|-------------------------------------------|
G|---------7-7-7---9-9-9-----------7-7-------|
D|-2-2-2---7-7-7---9-9-9---7-7-7---7-7---7---|
A|-2-2-2---5-5-5---7-7-7---7-7-7---5-5---7---|
E|-0-0-0-------------------5-5-5---------5---|





POR MI SANGRAS POR MI MATAS
POR MI DEJASTE LA CIUDAD
YO SOY LA ENVIDIA SOY LA SUERTE, SOY EL HAMBRE DE LA GENTE

2ª guitarra:

E|-----------------------------------|
B|-----------------------------------|
G|------------------7-7-7-7-7-7-7-7--|
D|-7-7-7-7-7-7-7-7--7-7-7-7-7-7-7-7--|
A|-7-7-7-7-7-7-7-7--5-5-5-5-5-5-5-5--|
E|-5-5-5-5-5-5-5-5-------------------|

E|-----------------------------------|
B|-----------------------------------|
G|------------------7-7-7-7-7-7-7-7--|
D|-9-9-9-9-9-9-9-9--7-7-7-7-7-7-7-7--|
A|-9-9-9-9-9-9-9-9--5-5-5-5-5-5-5-5--|
E|-7-7-7-7-7-7-7-7-------------------|



1ª guitarra:
A D
E|-------5--------------5-----------------5--------------5-------|
B|----------5--------------5-----------------7--------------7----|
G|----6--------6-----6--------6--------7--------7-----7----------|
D|-7--------------7-----------------7--------------7-------------|
A|---------------------------------------------------------------|
E|---------------------------------------------------------------|
B D
E|-------7--------------7-------------5--------------5-----------|
B|----------7--------------7-------------7--------------7--------|
G|----8--------8-----8-------------7--------7-----7--------------|
D|-9--------------9-------------7--------------7-----------------|
A|---------------------------------------------------------------|
E|---------------------------------------------------------------|


CIERTO, LAMENTABLE PERO CIERTO
TE PASAS LA VIDA RELLENANDO AGUJEROS Y ESO ES CIERTO

CIERTO, LAMENTABLE PERO CIERTO
TE PASAS LA VIDA RELLENANDO AGUJEROS Y ESO ES CIERTO


1ª y 2ª guitarra:

E|----------------------|x6
B|----------------------|
G|-----9--9------7------|
D|-2---9--9---7--7--7---|
A|-2---7--7---7--5--7---|
E|-0----------5-----5---|

Después deja sonando este acorde por dos compases
(Mi menor) y hace el punteo:

2ª guitarra:
E|-----|
B|-----|
G|-----|
D|-2---|
A|-2---|
E|-0---|


Donde está marcado con un asterisco es donde entra la 2ª guitarra:

1ª guitarra

E|-0-0-12-0-7-10-0-------0----10-0-0-1210-|
B|-----------------10-14---12--------------|
G|-----------------------------------------|
D|-----------------------------------------|
A|-----------------------------------------|
E|-----------------------------------------|

E|-0-0-12-0-7-10-0-------0----10------------|x3
B|-----------------10-14---12--------10-12--|
G|---------------------------------9--------|
D|------------------------------------------|
A|------------------------------------------|
E|------------------------------------------|


2ª guitarra (Hace mi menor de nuevo pero por un compás
y después hace esto:



E|-------------------------------------------|x4
B|-------------------------------------------|
G|---------7-7-7---9-9-9-----------7-7-------|
D|-2-2-2---7-7-7---9-9-9---7-7-7---7-7---7---|
A|-2-2-2---5-5-5---7-7-7---7-7-7---5-5---7---|
E|-0-0-0-------------------5-5-5---------5---|

Y termina así:

1ª guitarra: 2ªguitarra:
E|-0-| E|---|
B|---| B|---|
G|---| G|---|
D|---| D|-2-|
A|---| A|-2-|
E|---| E|-0-|

Tanscripta por Franco Sarachu
Dejen sus comentarios!!!!!