Vaiche Boa!

Heredeiros Da Crus

Genero: Pop

Tablatura

Cancion supercompleta con solo,solillos,fills,... Bueno disfrutarla,
y mandadme algo al mail para que me anime a sacar mas de heredeiros:
maremoto007@hotmail.com

Intro:
Riff1
E||------------------------------|-----------------------------|
B||------------------------------|-----------------------------|
G||------------------------------|----------------5---5-5-3----|
D||------5-5----5-----5------5---|------5-5----5--5---5-5-3----|
A||------------------------------|----------------3---3-3-1----|
E||--3-3-----3-----3-----3-3-----|--3-3-----3------------------|

RIff2
E||----------------------------------|-------------------------------|
B||----------------------------------|-------------------------------|
G||----------------------------------|-------------------------------|
D||------5-5-----5-5-----5-5-----5-5-|------8-8------8-8---8-8---8-8-|
A||----------------------------------|-------------------------------|
E||--3-3-----3-3-----3-3-----3-3-----|--6-6------6-6-----6-----6-----|

E||------------------------------------|
B||--5---5---8---8---8--10-------------|
G||--5---5---8---8---8--10-------------|
D||--3---3---6---6---6---8-------------|
A||------------------------------------|
E||------------------------------------|

riff3
E||--------------------------|
B||--5---3-3---1-1---1-1--3--|
G||--5---4-4---2-2---2-2--4--|
D||--5---5-5---3-3---3-3--5--|
A||--3---5-5---3-3---3-3--5--|
E||--------------------------|

fill1:
E||----------3-----------6---8-6-8--|
B||--3h5-3-------6h8-6--------------|
G||--------5-----------8------------|
D||---------------------------------|
A||---------------------------------|
E||---------------------------------|

Fill2:
E||-----------------------------|
B||-----------------------------|
G||-----------------------------|
D||-----5-5---------------------|
A||---------3b3-3-3~------------|
E||---3---------------6-3-6-3~--|

fill3
E||--------------------------------|
B||--------------------------------|
G||--------------------------3-----|
D||----------------------3-----5~--|
A||------------------3/5---5-------|
E||---3-3-3-3-3-3-3~---------------|

fill4
E||---3-3-3-3-3-3-3-------------|
B||---6b6b6b6b6b6b6r--3-6-------|
G||-----------------------3-----|
D||-------------------------5---|
A||-----------------------------|
E||-----------------------------|

fill5
E||-----8-----8--8-8-8-8-8----|
B||--8b----8b----8b8b8b8b8b---|
G||---------------------------|
D||---------------------------|
A||---------------------------|
E||---------------------------|


Intro: riff1

Estrofas:

riff1
Xusto cando a prima ven

xusto cando a prima ven

de barselona

ui!ui!ui! vaia marron
outra ves tocoume a min
rompe-la joma.

riff2
Mama onde estas ¿que dirá?

seca a sabanana, mama,¿que dira?

¿onde esta? vaina ti buscar

vai vai vai uh!

riff1
va-va-vaiche boa

riff1
Como jisa jose

couse ca min nom me pase

vaiche boa

riff1
Arrichouseme o pipi

arrichouseme o pipi

manchei a colcha.

riff2
Mama onde estas ¿que dirá?

seca a sabanana, mama,¿que dira?

¿onde esta? vaina ti buscar

vai vai vai uh!

riff1
va-va-vaiche boa

fill1 + fill2 + fill1 + fill3 + fill1 + fill4 + fill1 + fill5

D(p.m.)

riff1 x2

riff1
O teu fillo mexa pis

eu nom che som parva

som de barselona.

riff1
Mira Moncha ven aqui

dime ti que fai

tanta roupa

riff2
Mama onde estas ¿que dirá?

seca a sabanana, mama,¿que dira?

¿onde esta? vaina ti buscar

vai vai vai uh!

riff1
va-va-vaiche boa

riff3

Solo:
Guit1:riff3
Guit2:
E||----------------------------------|
B||-----------------------5-5--------|
G||-0--2/5---4-4---5-5/7-------7-5/4-|
D||----------------------------------|
A||----------------------------------|
E||----------------------------------|

|----------------------------------|----------------------------|
|---------5------------------------|-----8----------------------|
|--5-5/7---------------------------|--7b---7----5-7h5-7b-7b-5-7-|
|-----------5---5--5h7h5---5---7-5-|----------------------------|
|------------------------8---------|----------------------------|
|----------------------------------|----------------------------|

|---------------------------------|---------8---------8---------8-----------|
|---------------------------------|---8-8-------8-8-------8-8---------------|
|-7r5---7--5----------5h7h5---5-7-|-7b----7b--7b----7b--7b----7b--7b7-5---5-|
|-----7------7-7--5h7-------7-----|-------------------------------------7---|
|---------------------------------|-----------------------------------------|
|---------------------------------|-----------------------------------------|

|---------8-------------------------|
|---8-8------8-8----8-8---8---------|
|-7b----7b--------7b----7b--7r5---5-|
|-------------------------------7---|
|-----------------------------------|
|-----------------------------------|

|----------------------8-10h8----8------8-10h8----8-12h8----8-10h8----8-|
|------8-10h8-----8h10--------10---8h10--------10--------10--------10---|
|--7/9--------9-9-------------------------------------------------------|
|-----------------------------------------------------------------------|
|-----------------------------------------------------------------------|
|-----------------------------------------------------------------------|

|-12h8-12h8---8-10h8-10h8---8-12h8----8-13h8----8-12h8----8-10h8----8-12h8----|
|----------10------------10--------10--------10--------10--------10--------10-|
|-----------------------------------------------------------------------------|
|-----------------------------------------------------------------------------|
|-----------------------------------------------------------------------------|
|-----------------------------------------------------------------------------|

|-12h8-12h8---8-10h8-10h8---8-12h8---8-12h8-12h8---8-10h8-10h8---8-12h8---8-|
|-----------8-------------8--------8-------------8-------------8--------8---|
|---------------------------------------------------------------------------|
|---------------------------------------------------------------------------|
|---------------------------------------------------------------------------|
|---------------------------------------------------------------------------|

|--12h8-12h8---8-10h8-10h8---8-12h8---8-13h8---8-12h8---8-10h8---8-12h8---8-|
|------------8-------------8--------8--------8--------8--------8--------8---|
|---------------------------------------------------------------------------|
|---------------------------------------------------------------------------|
|---------------------------------------------------------------------------|
|---------------------------------------------------------------------------|

|---------------------15--------17-------------------|
|--------13-15h13-15b----15b15b----15b15r13----13-15-|
|--12/14------------------------------------14-------|
|----------------------------------------------------|
|----------------------------------------------------|
|----------------------------------------------------|

|-----15-15----15-15-15----15-15----15-15----15-15----15-15----15-15-|
|--15b------15b---------15b------15b------15b------15b------15b------|
|--------------------------------------------------------------------|
|--------------------------------------------------------------------|
|--------------------------------------------------------------------|
|--------------------------------------------------------------------|

|----15-15----15-15----15-15----------15-15----15-15-15-15-15-15----15-|
|-15b------15b------15b------15r13-15b------15b------------------15b---|
|----------------------------------------------------------------------|
|----------------------------------------------------------------------|
|----------------------------------------------------------------------|
|----------------------------------------------------------------------|

|-----15-15----15-15----15----15-15----15-15-------------|
|--15b------15b------15b---15b------15b------15r13-15-15/|
|--------------------------------------------------------|
|--------------------------------------------------------|
|--------------------------------------------------------|
|--------------------------------------------------------|

|---15-17h15---15-17h15-17h15---15-17h15-17h15---15-17h15---15-17h15----15-|
|-17---------17---------------17---------------17---------17---------17----|
|--------------------------------------------------------------------------|
|--------------------------------------------------------------------------|
|--------------------------------------------------------------------------|
|--------------------------------------------------------------------------|

|-18b-20~-20~-20~-|-20~-20~-20~-20~---|--------------------------15b15------||
|-----------------|----------------13/|17-15b-13-----13-15h13---x------17-15||
|-----------------|-------------------|---------12/14--------14-------------|
|-----------------|-------------------|-------------------------------------|
|-----------------|-------------------|-------------------------------------|
|-----------------|-------------------|-------------------------------------|

|---------------------------------------------------------------------|
|--17-17-17-17-15/13-15-13/12-13-12/10-12-10/8-10-8/6-8-8-6-6-5-5-3-3-|
|---------------------------------------------------------------------|
|---------------------------------------------------------------------|
|---------------------------------------------------------------------|
|---------------------------------------------------------------------|

|----5---------------------------|---5-5---5-5---5-5---5---5-5---5-5---5-5---5-|
|------8-6h5---5-----------------|---5-5---5-5---5-5---5---5-5---5-5---5-5---5-|
|-7b---------7---7r5---5-5---5-7-|-7b----7b----7b----7b--7b----7b----7b----7b--|
|--------------------7-----7-----|---------------------------------------------|
|--------------------------------|---------------------------------------------|
|--------------------------------|---------------------------------------------|

|----5-5---5-5---5---5-5---5-5---5-|----5-5---5-5---5-5---5---5-5---5-5---5-5---5-|
|----5-5---5-5---5---5-5---5-5---5-|----5-5---5-5---5-5---5---5-5---5-5---5-5---5-|
|--7b----7b----7b--7b----7b----7b--|--7b----7b----7b----7b--7b----7b----7b----7b--|
|----------------------------------|----------------------------------------------|
|----------------------------------|----------------------------------------------|
|----------------------------------|----------------------------------------------|

|----------------------8-5---5-----------------|----------------------------|
|-5-5-5-5-5-5-5-5-5-5------8---8-5-6-5---5-----|--5---3-3---8--8----5-5--3--|
|-7b7b7b7b7b7b7b7b7b7b-----------------7---7-5-|--7b--5b5b--10b10b--7b7b-5b-|
|----------------------------------------------|----------------------------|
|----------------------------------------------|----------------------------|
|----------------------------------------------|----------------------------|

|---------------------------||
|--5---3-3---8--8----5-5----||
|--7b--5b5b--10b10b--7b7b---||
|---------------------------||
|---------------------------||
|---------------------------||

riff3

riff1
vaiche boa!

Louro´02