O Pastor Alemán

Heredeiros Da Crus

Genero:

Tablatura

NOTA:Al final de la tablatura viene la estructura
INTRO:
Mientras suenan las trompetas se escucha una guitarra
que hace esto:_

-5-5-5-5-5--5----5-5--5-|-4-4-4-4-4--4----4-4--4-|
-5-5-5-5-5--5----5-5--5-|-5-5-5-5-5--5----5-5--5-|
-6-6-6-6-6--6----6-6--6-|-4-4-4-4-4--4----4-4--4-|
-7-7-7-7-7--7----7-7--7-|-6-6-6-6-6--6----6-6--6-|
------------------------|------------------------|
------------------------|------------------------|

-2-2-2-2-2--2----2-2--2-|-5-5-5-5-5--5----4-4--4-|
-3-3-3-3-3--3----3-3--3-|-5-5-5-5-5--5----5-5--5-|
-2-2-2-2-2--2----2-2--2-|-6-6-6-6-6--6----4-4--4-|
-4-4-4-4-4--4----4-4--4-|-7-7-7-7-7--7----6-6--6-|
------------------------|------------------------|
------------------------|------------------------|

ESTROFA:
Mientras que Mister Toñito de Poi interpreta el pre-
cioso poema que a esta canción acompaña, las melo-
diosas guitarras reproducen estas grandilocuentes
notas:

-5--x--5--x--5--x--5-|-4--x--4--x--4--x--4-|
-5--x--5--x--5--x--5-|-5--x--5--x--5--x--5-|
-6--x--6--x--6--x--6-|-4--x--4--x--4--x--4-|
-7--x--7--x--7--x--7-|-6--x--6--x--6--x--6-|
---------------------|---------------------|
---------------------|---------------------|

Ela tiña un can...

-2--x--2--x--2--x--2-|-5--x--5--x--4--x--4-|
-3--x--3--x--3--x--3-|-5--x--5--x--5--x--5-|
-2--x--2--x--2--x--2-|-6--x--6--x--4--x--4-|
-4--x--4--x--4--x--4-|-7--x--7--x--6--x--6-|
---------------------|---------------------|
---------------------|---------------------|
NOTA:En las x de esta guitarra, otra toca las notas.
Van \'alternandose\'.Y sigue:
-------|-------|-------|------|------|
-------|-------|-------|------|------|
-------|4------|7------|9--7--|------|
4------|4------|7------|9--7--|7-----|
4------|2------|5------|7--5--|7-----|
2------|-------|-------|------|5-----|
Ás des da mañán ensendín a radio...
PUENTE:
Con cada ¡Buaaaaa! del paisano la guitarra da una vez
E 5, que es:
|---|
|---|
|---|
|-2-|
|-2-|
|-0-|

ESTRIBILLO:

Con Power chords (Acordes de potencia), de esos que só-
lo con dos o tres dedos, según:

A G F# E ,siendo cada nota como pone abajo:
- - - -
- - - -
- - - -
7 5 4 2
7 5 4 2
5 3 2 0


ESTRUCTURA DE LA CANCIÓN:
Quedaría:

INTRO; ESTROFA; PUENTE; ESTROFA; PUENTE; ESTRIBILLO;
INTRO X 2; PUENTE; ESTRIBILLO y repite hasta el aburri-
miento.

SALUDOS A TODOS LOS FANS DE HERDEIROS, SOBRE TODO A
JUAN,DE CORUÑA (LA JUBIAS, S.D.) y a FRAN, de
MOAÑA, en Vigo.