Non Me Jodas Loló

Heredeiros Da Crus

Genero:

Tablatura

Intro y riff1:
E||-----------------------------|------------------------------|
B||-----------------------------|------------------------------|
G||-----------------------------|------------------------------|
D||----0----0-------------------|------------------------------|
A||----5b---5b-7------7------7--|------7------7------7------7--|
E||--7----7----0--0-0-0--0-0-0--|--0-0-0--0-0-0--0-0-0--0-0-0--|

riff2:
E||-----------------------------|
B||-----------------------------|
G||-----------------------------|
D||--0-0-0-0-0----9/------------|
A||------------7----------------|
E||-----------------------------|

Estrofa:
riff1 riff1
¿tendes fume? beibe ¿dasme fume?
riff1 riff1
ajora ye ye, usted disculpe
riff1 riff1
¿Que? ¿dasme xa? Ajarda pichurrin
riff1 riff1
agora sintome malo, ajarda un pouco my love

Estribillo:
riff2
No me jodas Loló x3

Topin tofe, beibe, topei tofe
oh ¿le justa mesié? levo aqui na carteira
ei ei vou mexar, ajora ti mirar
¡Ai cona!, dalhe calor, espera un pouco Loló, oh

Ahora jodete-lo

solo:
E E E E
|---------------------12-------|--------------------------------------|
|--------------10/-12----15-12-|------------------------------3-------|
|------------------------------|--15-14-12-14-12-14b------2/4---4h2h0-|
|------------------------------|--------------------------------------|
|------------------------------|--------------------------------------|
|------------------------------|--------------------------------------|

E E
|--------------------------------12-------|---15--------------15--17r--|
|--------------------------10/12----15b15b|------15b-------17----------|
|--4h2h0----------------------------------|----------------------------|
|--------2h0---2h0---2~-------------------|----------------------------|
|------------2-----2----------------------|----------------------------|
|-----------------------------------------|----------------------------|
E E E E
|--------15--------------19b-19-18-|--17------------------------------------|
|--17-15----17--------17-----------|-----20-17-20-17------17-19--19b-19b-19b|
|----------------------------------|----------------------------------------|
|----------------------------------|----------------------------------------|
|----------------------------------|----------------------------------------|
|----------------------------------|----------------------------------------|

E E
-------19-------------|
---19b----------------|
----------------------|
----------------------|
----------------------|
----------------------|

ei que rule, beibe que rule
e de pakistan beibe, al fin mesclouse
vai, vai, vai mexar, a cona que lo ti ló
¡ai cona! sintome un pouco malo e ajora sinto dolor
que sorra pendejo

Nom me jodas loló

¿quen é o que fai? joma
como o pilhe
si tal, acona o paso mal
ai que fume, a culpa é tua beibe

Louro´02

Cualquier cosa a maremoto007@hotmail.com