Juele A Cona

Heredeiros Da Crus

Genero:

Tablatura

Intro y estribillo:
E B E A
Juele a cona beibe, buf como arrecende
E B
Juele a cona beibe, animal

E E D# C# C# B E x2

Estrofa:
E
Jui cat the rait cachusen
A
do rei, no rei reluse
E B
dis ti all right, dasme a rason

Hai quen fai ten thousen pichas
nom pican, danlle bicos
ui, mola mais, dulson melon

juele..

E E D# C# C# B E

Teu pai di que lle cheire
pra min as que eu pesqueille
som mais de des, de des chuchus

E E D# C# C# B E

B(pm)
bo,oh oh..

E
A te pai
F
eu vin
F#
que fai
B
por B

juele... x2


bo,oh oh..

a teu pai
eu vin
el fai
surfin

juele...

E E D# C# C# B E

solo:x2
||---------------------------------------------------------|
||---------------------------------------------------------|
||-9b--9b--9b--11-----11~--13--13--13--14--14--14--13--11--|
||-----------------9---------------------------------------|
||---------------------------------------------------------|
||---------------------------------------------------------|

||---------------------------------------------------------------|
||------------------------------12b-12b-12b-12b-12b-12b-12b-12b--|
||-13--11--9--11--13---9--9--9-----------------------------------|
||---------------------------------------------------------------|
||---------------------------------------------------------------|
||---------------------------------------------------------------|



E E D# C# C# B E

B (pm)
bo ohhohoh

nom
vas queima-lkas mdias
cabron, viouloume en mosanbiq
sin joma nin nada
¿a quen dis?

juele a cona...

Louro´02

Cualquier cosa a maremoto007@hotmail.com