De Jalisia ó Extranxeiro

Heredeiros Da Crus

Genero:

Tablatura

Arpexio:

Em / D / C / Em
Em / D / C / Em

Em D
Dende hai xa ben de tempo
C Em
Os jallejos teñen peito
Em D
Teñen peito e mais juevos
C Em
inda que sexan pequenos

Em D
Comenzaron os máis vellos
C Em
conquistando o estranxeiro
Em D
invadindo continentes
C Em
pra traer uns poucos ferros

C Am D Em
Esta é a historia dun xoven labrejo
Em D C Em
que antes de embarcar xa fora mariñeiro


Em C-D C Em Em C-D C Em
e|---------------------|---------------------|
B|---------------------|---------------------|
G|-------5-7---5---9---|--------5-7---5------|
D|--2----5-7---5---9---|---2----5-7---5---2--|
A|--2----3-5---3---7---|---2----3-5---3---2--|
E|--0------------------|---0--------------0--|

A A A A A |
A A A A A A A A | X2
A A A A A |
A A A A A A A /

[Seguen os mesmos acordes, pero varía un pelín o ritmo]

De Jalisia ó estranxeiro, hai catro metros e medio
Coa maleta xa na porta, hai catro metros e medio
Currando en calquer choio, hai catro metros e medio
Albañil ou mariñeiro, hai catro metros e medio

Am G
Mi madriña, voume da casa
Am G
Mi madriña, non falo injlés
Am G
Mi madriña, eu non sei nada
Am G
Mi madriña, donde vou eu

[Isto só o toca o baixo]

Em D
Antes de ir pra o estranxeiro
C Em
el falou cun curandeiro
Em D
porque lle doía o peito,
C Em
tiña un dolor intenso

[Entra a guitarra]

Em D
"Ay doctor, yo tengo miedo
C Em
por mi amor y mis pequeños
Em D
ellos se quedan en casa
C Em
voy a llorar todo el tiempo"

C Am D Em
Esta é a historia dun xoven labrejo
Em D C Em
que antes de embarcar xa fora mariñeiro

Em C-D C Em Em C-D C Em
e|---------------------|---------------------|
B|---------------------|---------------------|
G|-------5-7---5---9---|--------5-7---5------|
D|--2----5-7---5---9---|---2----5-7---5---2--|
A|--2----3-5---3---7---|---2----3-5---3---2--|
E|--0------------------|---0--------------0--|

A A A A A |
A A A A A A A A | X2
A A A A A |
A A A A A A A /

[Seguen os mesmos acordes, pero varía un pelín o ritmo]

De Jalisia ó estranxeiro, hai catro metros e medio
Coa maleta xa na porta, hai catro metros e medio
Currando en calquer choio, hai catro metros e medio
Albañil ou mariñeiro, hai catro metros e medio

Am G
Mi madriña, voume da casa
Am G
Mi madriña, non falo injlés
Am G
Mi madriña, eu non sei nada
Am G
Mi madriña, donde vou eu

[Continúa isto ata o final]

Em C-D C Em Em C-D C Em
e|---------------------|---------------------|
B|---------------------|---------------------|
G|-------5-7---5---9---|--------5-7---5------|
D|--2----5-7---5---9---|---2----5-7---5---2--|
A|--2----3-5---3---7---|---2----3-5---3---2--|
E|--0------------------|---0--------------0--|

A A A A A |
A A A A A A A A | X2
A A A A A |
A A A A A A A /

[SOLO: Non é así, pero eu tócoo así que non o consigo sacar]

[min. 2:40]
e|-------------------------------------------------------|
B|--8-8-8----------------------8-8-8---------------------|
G|--------9-9-9-9-9-7-9-7-9~---------9-9-9-9-9-7-9-7-9~--|
D|-------------------------------------------------------|
A|-------------------------------------------------------|
E|-------------------------------------------------------|

[min. 2:47]
e|--------------------------------------|
B|-12-15b17r15--12-15b17r15-------------|
G|--------------------------14-12-11----| X2
D|-----------------------------------14-|
A|--------------------------------------|
E|--------------------------------------|


A A A A A |
A A A A A A A A | X2
A A A A A |
A A A A A A A /

-------------------------------------
Dúbidas, peticións e comentarios:
mixigodo [arroba] gmail . com
-------------------------------------