Racks

H.e.r.

Album: I Used to Know Her
Genero: R-b

Tablatura (Ver letra)

[Intro]

[tab] Emaj7 Dmaj7
e|-11-------------|-9--------------|
B|-----12---------|-----10---------|
G|---------13-----|---------11-----|
D|-------------14-|-------------12-|
A|----------------|----------------|
E|----------------|----------------|[/tab]

[tab] Emaj7 Dmaj7 D7
e|-11-------------|-9--------------|-8--------------|
B|-----12---------|-----10---------|-----10---------|
G|---------13-----|---------11-----|---------11-----|
D|-------------14-|-------------12-|----------------|
A|----------------|----------------|----------------|
E|----------------|----------------|----------------|[/tab]