Lights On

H.e.r.

Genero: R-b

Tablatura

[Intro]

[tab] F#maj7 G# F#maj7 G# B C#7
e-------------|-------------|-------------|---------------------|
B--6-6-6------|--4-4-4------|--6-6-6------|--4-4-4------7---6---|
G--6-6-6------|--5-5-5------|--6-6-6------|--5-5-5------8---4---|
D--4-4-4------|--6-6-6------|--4-4-4------|--6-6-6------9---6---|
A-------------|-------------|-------------|---------------------|
E-------------|-------------|-------------|---------------------|
1 + a 2 3 4 1 + a 2 3 4 1 + a 2 3 4 1 + a 2 3 4[/tab]


[Verse]

[tab] F#maj7 G# F#maj7 G# C#7 F#maj7
e-------------|-------------|-------------|---------------|-------------|
B--6-6-6------|--4-4-4------|--6-6-6------|--4-4-4-----6--|--6-6-6------|
G--6-6-6------|--5-5-5------|--6-6-6------|--5-5-5-----4--|--6-6-6------|
D--4-4-4------|--6-6-6------|--4-4-4------|--6-6-6-----6--|--4-6-4------|
A-------------|-------------|-------------|---------------|-------------|
E-------------|-------------|-------------|---------------|-------------|
1 + a 2 3 4 1 + a 2 3 4 1 + a 2 3 4 1 + a 2 3 4 1 + a 2 3 4[/tab]


[tab] G# F#maj7 G# B C#7
e|-------------|-------------|-----------------|
B|--4-4-4------|--6-6-6------|--4-4-4----7--6--|
G|--5-5-5------|--6-6-6------|--5-5-5----8--4--|
D|--6-6-6------|--4-4-4------|--6-6-6----9--6--|
A|-------------|-------------|-----------------|
E|-------------|-------------|-----------------|
1 + a 2 3 4 1 + a 2 3 4 1 + a 2 3 4 [/tab]


[Chords]
A#m 688666
B 799877
F#maj7 2x332x
F 133211
D#m x68876
G#m7 464444
C#7 x46464






[Intro]
F#maj7 G# F#maj7 G# B C#7

[Verse 1]
[tab]F#maj7
It's dark outside[/tab]
[tab]G# F#maj7 G# C#7
I'm feeling right with you, oh, you[/tab]
[tab]F#maj7
Don't turn off the lights[/tab]
[tab]G# F#maj7 G# B C#7
Can we try something new, oh, new?[/tab]

[Pre-Chorus]
[tab]A#m
Ain't see this side of me[/tab]
Fluent in the sheets
[tab]B
Can you read in between me?[/tab]
[tab]F#maj7
I ain't a stranger to the foreplay[/tab]
[tab]F
So we can skip the wordplay[/tab]

[Chorus]
[tab]D#m
Leave the lights on[/tab]
Leave the, leave the lights on
[tab]A#m
Leave 'em lights on[/tab]
[tab] D#m A#m
Leave 'em, leave 'em lights on, on[/tab]
[tab]D#m
Do it side on[/tab]
Switch and let me ride on
[tab]A#m
Got all night long[/tab]
[tab] D#m A#m G#m7 C#7
Leave 'em, leave 'em lights on, on, on, on[/tab]

[Verse 2]
[tab]F#maj7
Won't close my eyes[/tab]
[tab]G# F#maj7 G# C#7
Show me what you can do (you can do), do (yeah)[/tab]
[tab]F#maj7
I know your vibe[/tab]
[tab]G# F#maj7 G# B C#7
D'Angelo and penthouse views, yeah, views[/tab]

[Pre-Chorus]
[tab]A#m
Ain't seen this side of me[/tab]
Fluent in the sheets
[tab]B
Can you read in between me?[/tab]
[tab]F#maj7
I ain't a stranger to the foreplay[/tab]
[tab]F
So we can skip to wordplay, yeah[/tab]

[Chorus]
[tab]D#m
Leave the lights on[/tab]
Leave the, leave the lights on
[tab]A#m
Leave them lights on[/tab]
[tab] D#m A#m
Leave 'em, leave 'em lights on, on[/tab]
[tab]D#m
Do it, side on[/tab]
Switch and let me ride on
[tab]A#m
Got all night long[/tab]
[tab] D#m A#m G#m7 C#7
Leave 'em, leave 'em lights on, on, on, on[/tab]

[Bridge]
[tab]F#maj7 G#
Leave the lights on[/tab]
[tab]F#maj7
Leave the lights on[/tab]
[tab] G#
Leave the lights on, yeah[/tab]
[tab] C#7 F#maj7 G#
Switch your side on, side on[/tab]
[tab] F#maj7 G# B C#7
Oh yeahhh[/tab]