Going Interlude

H.e.r.

Album: I Used to Know Her: Part 2 - EP
Genero: R-b

Tablatura (Ver letra)

[tab][Chords]
e|------------------|
B|-9----9----5----7-|
G|-10---7----6----5-|
D|-10---9----6----7-|
A|-8----7----x----5-|
E|-----------5------|[/tab]


[tab][All Verses]
e|--------------|-----------|-----------|----------|
B|--9--9----9---|--9-9---9--|--5-5---5--|--7-7--7--|
G|--10-10---10--|--7-7---7--|--6-6---6--|--5-5--5--|
D|--10-10---10--|--9-9---9--|--6-6---6--|--7-7--7--|
A|--8-----8-----|--7---7----|--x--------|--5---5---|
E|--------------|-----------|--5---5----|----------|[/tab]


isso eh o que ela toca ao vivo, na guitarra mesmo.