Feel Away

H.e.r.

Album: I Used to Know Her
Genero: R-b

Tablatura (Ver letra)

essas são as notas:

[tab]e|------------------|
B|-8---10-----------|
G|-5---10---8---11--|
D|-8---8----8---10--|
A|-6---10---8---X---|
E|----------8---10--|[/tab]


ao vivo ela toca mais ou menos isso:

[tab]e|-----------------------------------------------|
B|----------6h8----10-10----10-------------------|
G|--------7--------10-10----10-------8-----------|
D|------8-----------8-8-----8-------8--------11--|
A|----6----------10------10-------x--------10----|
E|-------------------------------8-------10------|[/tab]