The Pink Panther Theme

Henry Mancini

Genero: Pop

Tablatura

Pink Panther Theme
Tabbed by Wes Chennault


e|---------------|
B|---------------|
G|---------------| x2
D|---------------|
A|-4/5-6/7-------|
E|----------7--0-|

e|-----------------------------------------------|
B|-----------------------------------------------|
G|-----------------------5\4---------------------|
D|----------4/5------4/5---------9\8~~~\7p5------|
A|-4/5-6/7-------6/7--------7/10-----------7p5-7-|
E|-----------------------------------------------|

e|-------------------------------------|
B|-------------------------------------|
G|-----------------------5\4------9\8~-|
D|----------4/5------4/5------5/9------|
A|-4/5-6/7-------6/7-------------------|
E|-------------------------------------|

e|-----------------------------------------------|
B|-----------------------------------------------|
G|-----------------------5\4---------------------|
D|----------4/5------4/5---------9\8~~~\7p5------|
A|-4/5-6/7-------6/7--------7/10-----------7p5-7-|
E|-----------------------------------------------|

e|--------------------------------------------------------|
B|--------------------------------------------------------|
G|--------8g9p7-------------------------------------------|
D|--------------8g9\7p5---8pb7-8pb7-8pb7-8pb7--5----------|
A|-4/5-6/7--------------7------------------------7p5-7-7\-|
E|--------------------------------------------------------|



************************************

| / Slide up
| \ Slide down
| p Pull-off
| ~ Vibrato
| g Grace note
| pb Pre-bend

************************************