Eres Dios

Henry García

Genero:

Tablatura

Bendiciones...Empezemos,,,

Intro

E - A - B - E - A - E - A - B
E - A - B - E - A - C#m - A - B


E----9-11-12-5--5-7-- Intro de Bajo se repite 2 veces
A--7-----------7-----
D--------------------
G--------------------


Verso

E B A
Ven y hoy adoremos
E B A
Ven y hoy exaltemos
C#m B A
A Jesús Hijo de Dios
C#m B A
A quien me redimió

E B A
Adoremos al cordero
E B A
Adoremos al creador
C#m B A
a quien es principio y fin
C#m B A
a quien es el gran yo Soy

Coro

E B
//Tu Eres el Dios de los cielos
C#m B
Tu Eres el Dios de la tierra
A C#m
Por la Eternidad
B
tu reinaras//

Corte #1

E---------------------------------------------------
A--7-7-7--7-7-7--7-7-9--11--7-7-7--7-7-7--7-7--6-4--
D---------------------------------------------------
G--9-9-9--9-9-9--9-9-11-13--9-9-9--9-9-9--9-9--8-6--
B---------------------------------------------------
e---------------------------------------------------

E----------------------------------------------------
A--7-7-7--7-7-7--7-7-9--11--7-7-7--7-7-7--7-7--4-2-7-
D----------------------------------------------------
G--9-9-9--9-9-9--9-9-11-13--9-9-9--9-9-9--9-9--6-4-9-
B----------------------------------------------------
e----------------------------------------------------

Intermedio:

//C#m - B - A
A - B - C#m// A - B

Solo de Guitarra
Te lo explico en persona bryan...antes del ensayo...Escala E Mayor.

FIN

////A - C#m - B - E/G#////

EEE-F#F#F#-C#C#C#-B-B-B A-G#-F#-E