Hell Beer Boys

Hell Beer Boys

Genero: Rap Non-music

Tablatura

D-A-G-D-A

En el infierno me encontraras,
bebiendo cerveza para olvidar
El mundo podrido que nos rodea,
pero con ganas de molestar.

Somos rechazados por esta sociedad,
y eso nos motiba para continuar.
Con musika protesta,sonido HELL BEER BOYS,
tus dias estan contados llega la revolucion.

We are HELL BEER BOYS,chicos cerveceros,
hijos del infierno,nos cagamos en dios.(2)

Y pasaran los años seguiremos aqui,
y nunca cambiaremos porque somos asi,
este es el camino que emos elegido
y unidos mas que nunca pretendemos seguir.

kieres a nuestra gente luchando en la batalla
Alkol en nuetra sangre dispuestos a liarla.
Con musika protesta sonido HELL BEER BOYS,
tus dias estan contados llega la revolucion.

We are HELL BEER BOYS,chicos cerveceros,
hijos del infierno,nos cagamos en dios.(2)

---2-----------------2*-0-0-2-0
-3*--3-2*-5-3/2/3--3*----------
-------------------------------
-------------------------------
-------------------------------
-------------------------------

We are HELL BEER BOYS,chicos cerveceros,
hijos del infierno,nos cagamos en dios.(2)

---2-----------------2*-0-0-2-0
-3*--3-2*-5-3/2/3--3*----------
-------------------------------
-------------------------------
-------------------------------
-------------------------------