El Lugar

Hector Sotelo

Genero:

Tablatura

e[-------------------------------------------------------12-]
B[15--13/12/13----------------------12-------------12h13----]
G[--------------12/11/12---11-12-14---12--11h12-14----------]
D[----------------------------------------------------------]
A[----------------------------------------------------------]
E[----------------------------------------------------------]

e[-14/15-14-12---14/15-14-15-12---12------------------------]
B[----------------------------------15-13-12----------------]
G[------------------------------------------14-12-12-11/12--]
D[----------------------------------------------------------]
A[----------------------------------------------------------]
E[----------------------------------------------------------]

e[--------------12------------------------------------------]
B[--------12h13---------------------------------------------]
G[11h12-14--------------------------------------------------]
D[----------------------------------------------------------]
A[----------------------------------------------------------]
E[----------------------------------------------------------]