Amor

Hector Sotelo

Genero:

Tablatura

HECTOR SOTELO - AMOR
ojala les guste, es muy buena cancion es una de mis favoritas;
un saludo a todos mis cuates de la banda << NAZIR >>
"PARA DIOS NO HAY IMPOSIBLES, TAMPOCO PARA NOSOTROS" <<NAZIR>>

e[----------------------------------]
B[----------------------------------]
G[----------------------------------]
D[-------4--------4-------4-------4-]estos 2 primeros 2 veces)
A[----2-------2-------2-------2-----]
E[----------------------------------]

e[----------------------------------]
B[----------------------------------]
G[----------------------------------]
D[-------0--------0-------0-------0-]
A[----------------------------------]
E[----3-------3-------3--------3----]

e[----------------------------------------------------------]
B[----------------------------------------------------------]
G[----------------------------------------------------------]
D[-----4---4----0------0------7----7-----2-2/4--2--0--------]
A[--2---2-------------------5---5-----0---------------------]
E[------------3----3-3---3----------------------------------]

e[----------------------------------------------------------]
B[----------------------------------------------------------]
G[----------------------------------------------------------]
D[-----4---4----0------0------2---2----------------4--------]
A[--2---2-------------------0---0--------4-4/5-4---2--------]
E[------------3----3-3---3------------2---------------------]

EN EL LUGAR SECRETO... (SE REPITE ESTA PRIMERA SECCION)

e[----------------------------------------------------------]
B[----------------------------------------------------------]
G[----------------------------------------------------------]
D[-----4---4----0------0------7----7-----2-2/4--2--0--------]
A[--2---2-------------------5---5-----0---------------------]
E[------------3----3-3---3----------------------------------]

DEJAME PERDEME EN TU MIRADA... (SE REPITE ESTA SEGUNDA SECCION)

e[----------------------------------------------------------]
B[----------------------------------------------------------]
G[----------------------------------------------------------]
D[-----4---4----0------0------2---2----------------4--------]
A[--2---2-------------------0---0--------4-4/5-4---2--------]
E[------------3----3-3---3------------2---------------------]



Bm G D A
AMOR QUE DEL CIELO DESCENDIO
Bm G D A
EL LIRIO DE LOS VALLES MI AMADO ERES TU
(TAMBIEN PUEDE SER MI AMADO ES JESUS)
Bm G D A
AMOR QUE DEL CIELO DESCENDIO
Bm G D A
EL LIRIO DE LOS VALLES MI AMADO ERES TU
(Y SE REPITE 2 VECES)

e[----------------------------------------------------------]
B[----------------------------------------------------------]
G[----------------------------------------------------------]
D[-----4---4----0------0------7----7-----2-2/4--2--0--------]
A[--2---2-------------------5---5-----0---------------------]
E[------------3----3-3---3----------------------------------]

e[----------------------------------------------------------]
B[----------------------------------------------------------]
G[----------------------------------------------------------]
D[-----4---4----0------0------2---2----------------4--------]
A[--2---2-------------------0---0--------4-4/5-4---2--------]
E[------------3----3-3---3------------2---------------------]


EN EL LUGAR SECRETO... (SE REPITE ESTA PRIMERA SECCION)

e[----------------------------------------------------------]
B[----------------------------------------------------------]
G[----------------------------------------------------------]
D[-----4---4----0------0------7----7-----2-2/4--2--0--------]
A[--2---2-------------------5---5-----0---------------------]
E[------------3----3-3---3----------------------------------]

DEJAME PERDEME EN TU MIRADA... (SE REPITE ESTA SEGUNDA SECCION)

e[----------------------------------------------------------]
B[----------------------------------------------------------]
G[----------------------------------------------------------]
D[-----4---4----0------0------2---2----------------4--------]
A[--2---2-------------------0---0--------4-4/5-4---2--------]
E[------------3----3-3---3------------2---------------------]

Bm G D A
AMOR QUE DEL CIELO DESCENDIO
Bm G D A
EL LIRIO DE LOS VALLES MI AMADO ERES TU
(TAMBIEN PUEDE SER MI AMADO ES JESUS)
Bm G D A
AMOR QUE DEL CIELO DESCENDIO
Bm G D A
EL LIRIO DE LOS VALLES MI AMADO ERES TU

(EL FINAL)

e[----------------------------------------------------------]
B[----------------------------------------------------------]
G[----------------------------------------------------------]
D[-----4---4----0------0------7----7-----2-2/4--2--0--------]
A[--2---2-------------------5---5-----0---------------------]
E[------------3----3-3---3----------------------------------]

e[----------------------------------------------------------]
B[----------------------------------------------------------]
G[----------------------------------------------------------]
D[-----4---4----0------0------2---2----------------4--------]
A[--2---2-------------------0---0--------4-4/5-4---2--------]
E[------------3----3-3---3------------2---------------------]