Guajira A Guayaquil

Hector Napolitano

Genero:

Tablatura

Tonalidad: Am

(Para más tutoriales de canciones de artistas ecuatorianos
como Guardarraya, Arkabuz, Mamá Vudú, Sal y Mileto visita mi canal:
https://www.youtube.com/channel/UCkbfN7aUH-2ujoe44nQdA6g)

Intro hecho por el piano (se repite dos veces)

¡Aaaajúaaa!

e------------------------------------------------------
B------------------------------------------------------
G--1--2--4--5-5--4--2--1--4-7--5-5--4--2--1--------------
D------------------------------------------------------
A------------------------------------------------------
E------------------------------------------------------

(Aquí entra el paino con el bajo, repetir dos veces)

e-------------------------------------------------3-----3---
B-------------------------------------------------3-----3---
G--1--2--4--5-5--4--2--1--4-7--5-5--4--2--1-------1-----1---
D-----------------------------------------------------------
A-----------------------------------------------------------
E--0--2--4--5-5--3--1--0--4-7--5-5--3--1--0-----0-----0-----


Este intro se puede acompañar con la siguiente progresión de acordes:

Am - G - F - E7


¡Ajá!


¡Juega!


¡Dímelo, dímelo!

Am

Dm E7 Dm-Am Dm E7 Dm-Am
Hace tiempo que quería, cantarle a Guayaquil
Dm E7 Dm-Am Dm E7 Dm-Am
Hace tiempo que quería, cantarle a Guayaquil
Dm E7 Dm-Am Dm E7 Dm-Am
Cantarle al Cerro Santa Ana y al Carmen donde nací
Dm E7 Dm-Am G F E7
Cantarle al Cerro Santa Ana y al Carmen donde nací

¡Desde Las Peñas!


Am - G - F - E7X4


Am

Dm E7 Dm-Am Dm E7 Dm-Am
Desde la Boca del Pozo, camino hacia el Malecón
Dm E7 Dm-Am Dm E7 Dm-Am
Me llevo tal impresión, de mirar el río Guayas
Am Dm E7 Dm-Am Dm E7 Dm-Am
Lechuguines, lodo y jaibas corriendo van para el sur
Dm E7 Dm-Am Dm E7 Dm-Am
La ría baña su paso, al Barrio del Astillero
Dm E7 Dm-Am Dm E7 Dm-Am
Donde nació Barcelona, el ídolo ecuatoriano, finalista
Dm E7 Dm-Am G F E7
Lo dice Napolitano, lo dice de corazón




Am Dm E7 Dm
Guayaquil, la bella
Am Dm E7 Dm Am
Guayaquil, la estrella
Dm E7 Dm Am
Eres perla que surgiste del más grande e ignoto mar
Dm E7 Dm
Ella es la primera del cielo blanco y celeste
Am Dm E7
Ella saca su bandera con su fondo estrellado
Dm Am Dm E7
Desde el Estero Salado yo le canto enmarañado


Am - Dm - E7 - Dm X4


¡Damas y caballeros el príncipe del alambre dulce!


¡Héctor Napolitano suena el Tres!


Am - Dm - E7 - Dm (durante todo el solo)


Am - G - F - E7

¡Guayaquil!
¡Guayaquil!
¡Guayaquil!
¡Guayaquil!


¡Guayaquil!
¡Guayaquil!
¡Guayas!
¡Ya!


Am (577555)


¡Que rica!


Mira este tutorial en vídeo aquí: https://www.youtube.com/watch?v=4gBjJfEMX9k