Quiero Leche

Heavysaurios

Genero:

Tablatura

Intro

e|--------------------------|--------------------------------|
B|--------------------------|--------------------------------|
G|--------2--4--2-----2--4~-|--------2--4--2--44444----------|x2
D|--4--4--2--4--2--4--2--4~-|--4--4--2--4--2--44444----------|
A|--4--4-----------4--------|--4--4-----------22222----------|
E|--------------------------|--------------------------------|

Sobre Intro

Una vez más vamos viajando
a la próxima ciudad,
me desperté muerto de hambre,
busco algo para comer.


G Riff
Una hamburguesa con papas encontré, e|--------------------
B|--------------------
G|------9--7--11--9--- Riff
pero debo decir que lo que quería D|------7--5--9---7---
A|--000---------------
D E E|--------------------
en ningún lado está. ...



D E* F# A
Quiero leche, uh, oh, oh, oh,
B D E*
rica y natural, no puedo esperar más.
F# A
Leche, uh, oh, oh, oh,
B D E*
no quiero comer sin leche otra vez, ya no.


Intro x 1

Una estación se ve a lo lejos,
tal vez tengan un poco ahí.
No tengo tiempo, se hizo muy tarde,
llegó la hora de partir.


No necesito más gasolina hoy,
pude encontrar panes, crema y manteca,
pero dicen que ya no hay más.


Yo quiero leche, uh, oh, oh, oh,
rica y natural, no puedo esperar más.
Leche, uh, oh, oh, oh,
no quiero comer sin mi leche otra vez.

Solo
Riff 2
G riff 2 e|---------------
No puedo creer que cueste tanto encontrar, B|---------------
F G|----5x----5x---x2
voy a atrapar una vaca lechera, D|-5x-5x-5x-5x---
E (PM) A|-5x-3x-5x-3x---
y así tal vez podré tener E|-3x----3x------

lo que tanto esperé.


Quiero leche, uh, oh, oh, oh,
rica y natural, no puedo esperar más.
Leche, uh, oh, oh, oh,
no quiero comer sin leche otra vez.
Leche, uh, oh, oh, oh,
rica y natural, no puedo esperar más.
Leche, uh, oh, oh, oh,
no quiero comer sin leche otra vez, ya no.


Recomiendo hacer los E en el septimo traste, quinta cuerda.


Bueno Gente, es mi primer transcripción asi que perdon si tiene algun error.
Espero que les sirva, Saludos