Diciembre

Hastakinomas

Genero:

Tablatura

Chebere la cancion a pedido del admi de la comuna de zero balas xd

D5 F#5 G5 A5
Y siempre callo en una ilusion
que se convirtio en un dolor
algo que se perdio
[riff]
las cosas malas ya no volveran
todo se guardo en tu corazon

D5 F#5 G5 A5 + [octavas A]

D5 F#5 G5 A5
Y siempre callo en una ilusion
que se convirtio en un dolor
algo que se perdio
las cosas malas ya no volveran
todo se guardo en tu corazon
algo que se perdio

F#5 G5 [X3] + [octavas B]
y el adios.. de un dolor
y el rencor
A5
la magia perdida que no

D5 F#5 G5 A5 + [octavas C]
siempre pensando
y soñando en mi cuarto
tratando de buscar una vida
de felicidad
sola tu vuelves
a buscarme y abrazarme
pero solo me queda decirte adios..

D5 G5/A5 [X3]

D5 F#5 G5 A5
y la mirada de tus ojos se perdio
en jmi corazon en un dolor
ya no volvera imi ilusion
y tus palabras ya no asaran
todo se guardo en tu corazon
algo que se perdio

F#5 G5 [X3] + [octavas B]
y el adios.. de un dolor
y el rencor
A5
la magia perdida que no

D5 F#5 G5 A5 + [octavas C]
siempre pensando
y soñando en mi cuarto
tratando de buscar una vida
de felicidad
sola tu vuelves
a buscarme y abrazarme
pero solo me queda decirte adios..

D5 G5/A5 [X3]


________________________________________________________________________
NOTA:


[riff]

|-----------------------------|
|-8-------8------8------------|
|---7-------7------7----------|
|-----5-------7------9-----7v-|
|-----------------------------|
|-----------------------------|

[octavas A]

|---------------------------------------------------------------------|
|---------------------------------------------------------------------|
|-77777-11-9-7--111111-11-9-7---1212121212-1211-9---1414141414-1211-9-|
|-xxxxx--x-x-x---xxxxx--x-x-x----x-x-x-x-x--x-x-x----x-x-x-x-x--x-x-x-|
|-55555--9-7-5---99999--9-7-5---1010101010-10-9-7---1212121212-10-9-7-|
|---------------------------------------------------------------------|

[octavas B]

|--------------------------------------|
|--------------------------------------|
|-11111111111111-12121212121212121212--|
|--xxxxxxxxxxxxx--xxxxxxxxxxxxxxxxxxx--| x3
|--9999999999999-10101010101010101010--|
|--------------------------------------|

|---------------------------------------|
|---------------------------------------|
|-14-13-11---14-13-11---12121212-111111-|
|--x--x--x----x--x--x----x-x-x-x--xxxxx-|
|-12-11--9---12-11--9---10101010--99999-|
|---------------------------------------|

[octavas C]

|-------------------------------------------------------------------|
|-------------------------------------------------------------------|
|-77777-9-7-6-----111111-12-9------12121212-14-12-------14*-12*-11*-|
|-xxxxx-x-x-x--x2--xxxxx--x-x--x2---x-x-x-x--x--x--x2----x--x----x--|
|-55555-7-5-4------99999-10-7------10101010-12-10-------12*-10*--9*-|
|-------------------------------------------------------------------|

|-------------------------------------------------------------------|
|-------------------------------------------------------------------|
|-77777-9-7-6-----111111-12-9------12121212-14-12-------14*-16*-18*-|
|-xxxxx-x-x-x--x2--xxxxx--x-x--x2---x-x-x-x--x--x--x2----x---x---x--|
|-55555-7-5-4------99999-10-7------10101010-12-10-------12*-14*-16*-|
|-------------------------------------------------------------------|


______________________________________________________________________

Transcripción por Angelo (www.purevolume.com/dopamina)

Hablamos!