Khastam

Habib

Genero:

Tablatura

[tab][Intro]
e|------------5-5---8-~8-----------6p5---------------------------|
B|------6-6----------------------------8p6-~8--------------------|
G|5-5------------------------------------------------------------|
D|---------------------------------------------------------------|
A|---------------------------------------------------------------|
E|---------------------------------------------------------------|[/tab]

[tab]e|------------5-5---8-~8-----------6p5---------------------------|
B|------6-6----------------------------8p6-~8--------------------|
G|5-5------------------------------------------------------------|
D|---------------------------------------------------------------|
A|---------------------------------------------------------------|
E|---------------------------------------------------------------|[/tab]

[tab]e|/5h6p5---------|-----------|---------------------------------|
B|-------8-6---6-|-8-8-6---6-|-8-6h8--6---6--------------------|
G|-----------8---|-------8---|----------8----------------------|
D|---------------|-----------|---------------------------------|
A|---------------|-----------|---------------------------------|
E|---------------|-----------|---------------------------------|[/tab]


************************************

| p Pull-off
| ~ Vibrato
| h Hammer-on
| / Slide up

************************************